Oops, an error
Loading. Please wait.

I Never Told You bass

version 2
version 2

Whole song

265 views 1 this week
no commentswrite comment
1 2 3 4 5
3 more votes to show rating
add to favorites
×
Save as Personal and add changes to this tab that will be seen only by you. Learn more ›
×
You can save this tab as Personal to edit and correct it or add notes. All changes will be seen only by you. Learn more »
launch autoscroll
font size
0
reset
guitar tuner
edit
Autoscroll
slow
fast
+/-
esc
set tempo
stop
Author
Difficulty
I Never Told You - Colbie Caillat
Standard tuning

Intro
G|--------|
D|--------|
A|--------|
E|--------|

[1st Verse]

I miss those blue eyes, How you kiss me at night
I miss the way we sleep,
Like there's no sunrise, Like the taste of your smile
G|------------------------|
D|------------------------|
A|3-3-5-----5-6-6-5-----6-|   X 3
E|------4-4---------7-7---|

I miss the way we breathe
G|------------------------|
D|------------------------|
A|3-3-5-----5-6-6-5-----5-|
E|------4-4---------7-7---|


[Pre Chorus] (ring out each line)

But I never told you
G|-----------|
D|-----------|
A|-----------|
E|4----------|

What I should have said
G|-----------|
D|-----------|
A|6----------|
E|-----------|

No, I never told you
G|-----------|
D|-----------|
A|-----------|
E|4----------|

I just held it in
G|-----------|
D|-----------|
A|6----------|
E|-----------|

[Chorus]

And now,
G|-----------|
D|-----------|
A|4-4-4-3----|
E|-----------|

I miss everything about you
Can't believe that I still want you
And after all the things we've been through
I miss everything about you, Without you
G|------------------------|
D|------------------------|
A|3-3-5-----5-6-6-5-----5-|
E|------4-4---------7-7---|

Interlude
G|--------------------------|
D|--------------------------|
A|3-5---5-6-5---6-----------|
E|----4-------7-------------|

[2nd Verse]

I see your blue eyes, Everytime I close mine
You make it hard to see
Where I belong to, When I'm not around you
G|------------------------|
D|------------------------|
A|3-3-5-----5-6-6-5-----6-|   X 3
E|------4-4---------7-7---|

It's like I'm alone with me
G|------------------------|
D|------------------------|
A|3-3-5-----5-6-6-5-----5-|
E|------4-4---------7-7---|

[Pre Chorus] (ring out each line)

But I never told you
G|-----------|
D|-----------|
A|-----------|
E|4----------|

What I should have said
G|-----------|
D|-----------|
A|6----------|
E|-----------|

No, I never told you
G|-----------|
D|-----------|
A|-----------|
E|4----------|

I just held it in
G|-----------|
D|-----------|
A|6----------|
E|-----------|

[Chorus]

And now,
G|-----------|
D|-----------|
A|4-4-4-3----|
E|-----------|

I miss everything about you
Can't believe that I still want you
And after all the things we've been through
I miss everything about you, Without you
G|------------------------|
D|------------------------|
A|3-3-5-----5-6-6-5-----5-|
E|------4-4---------7-7---|

Interlude
G|--------------------------|
D|--------------------------|
A|3-5---5-6-5---6-----------|
E|----4-------7-------------|

[Pre Chorus] (ring out each line)

But I never told you
G|-----------|
D|-----------|
A|-----------|
E|4----------|

What I should have said
G|-----------|
D|-----------|
A|6----------|
E|-----------|

No, I never told you
G|-----------|
D|-----------|
A|-----------|
E|4----------|

I just held it in
G|-----------|
D|-----------|
A|6----------|
E|-----------|

[Chorus]

And now,
G|-----------|
D|-----------|
A|4-4-4-3----|
E|-----------|

I miss everything about you
Can't believe that I still want you
And after all the things we've been through
I miss everything about you, Without you
G|------------------------|
D|------------------------|
A|3-3-5-----5-6-6-5-----5-|
E|------4-4---------7-7---|

Interlude
G|--------------------------|
D|--------------------------|
A|3-5---5-6-5---6-----------|
E|----4-------7-------------|

[Outro]
G|------------------------|
D|------------------------|
A|3-3-5-----5-6-6-5-----6-|
E|------4-4---------7-7---|

G|------------------------|
D|------------------------|
A|3-3-5-----5-6-6-5-----5-|
E|------4-4---------7-7---|

G|------------|
D|------------|
A|3-----------|
E|----4-------|

            
            
Suggest correction
Creating personal tab
Creating personal tab
You can edit any tab online and save it as your Personal.

You can edit, replace or remove any tab part or add personal notes – all changes will be seen only by you.

Personal tabs can be accessed anytime from any device, even offline.
Learn more »
Give kudos to tab author, rate the tab!
1 2 3 4 5
comments
print report bad tab
guest
You may want to rate the tab now too:
select rating
Wanna post a correction for this tab? Suggest correction