Oops, an error
Loading. Please wait.

Magic Tab

version 1
version 1
16,708 views 1 this week
4 commentsread comments
1 2 3 4 5
x 3
add to favorites
launch autoscroll
font size
0
reset
how to read this tab
guitar tuner
Autoscroll
slow
fast
+/-
esc
set tempo
stop
Help us to improve Ultimate-Guitar.com Take our survey!
×
Author
Capo
3rd fret
 MAGIC by colbie caillat

 
 G     (300033)
 Cadd9 (x30033)
 

 capo 3rd fret

 INTRO:

     G                Cadd9            G                Cadd9
 e|-------3----3---|-------3--------|-------3----3---|--------3---3---||
 B|-----3---33--3--|-----3---3------|-----3---33--3--|-----3----3-----||
 G|----0-0-------0-|----0-0---------|----0-0-------0-|----0-0-------0-||
 D|----------------|----------------|----------------|----------------||
 A|----------------|-3------------3-|----------------|-3--------------||
 E|-3--------------|----------------|-3--------------|----------------||


 have fun :)

Suggest correction
Give kudos to tab author, rate the tab!
1 2 3 4 5
comments
print report bad tab
4 comments total. Showing first comments.
0 reply
bondo 10 Dec 18, 2007 09:57 PM


e-----1-----1-----1-----1
---
B-----
G-----
D----3-
-----3-----3-----3-----
A-1-----3-----3-----
E-----

Sounds Better
IMO. in place of the G phrase.

0 reply
bondo 10 Dec 18, 2007 09:57 PM


e-----1-----1-----1-----1
---
B-----
G-----
D----3-
-----3-----3-----3-----
A-1-----3-----3-----
E-----

Sounds Better
IMO. in place of the G phrase.

0 reply
bondo 10 Dec 18, 2007 09:59 PM

please forgive the jacked up appearance and double post =S

guest
You may want to rate the tab now too:
select rating
Wanna post a correction for this tab? Suggest correction