Oops, an error
Loading. Please wait.

Magic Tab

version 4
version 4
4,768 views 1 this week
1 commentread comment
1 2 3 4 5
x 4
add to favorites
launch autoscroll
font size
0
reset
how to read this tab
guitar tuner
Autoscroll
slow
fast
+/-
esc
set tempo
stop
Help us to improve Ultimate-Guitar.com Take our survey!
×
Author
Difficulty
Capo
novice
3rd fret
-------------------------------------------------------------------------------
                             Magic - Colbie Caillat
-------------------------------------------------------------------------------
Tabbed by: JGervais
Email: n/a

Tuning: Standard with Capo on 3rd Fret

e|---3-------------------------------------------------------------------|
B|---3------------3---------------------------------------3--------------|
G|---0----0h2p0------0----0--0h2p0--------------------------0---0--------|
D|---0--------------------------------0h2p0--------0h2-------------2-----|
A|---x-----------------------------------------3-------------------------|
E|---3-------------------------------------------------------------------|

e|---3----------------------------------------------------3------2-------|
B|---3------------3-----------------------------------------3-----3------|
G|---0----0h2p0------0----0--0h2p0---------------------------------------|
D|---0--------------------------------0h2p0--------0h2-------------------|
A|---x-----------------------------------------3-------------------------|
E|---3-------------------------------------------------------------------|

Listen to the song for the timing of each note... 

************************************


| h   hammer-on
| p   pull-off
| x   Mute note


************************************
Suggest correction
comments
print report bad tab
1 comment total.
+1 reply
taylor114 10 May 21, 2013 05:28 PM

brilliant! i just think the third pull-off is a bit off, i play it like this:
e|---3-------------------------------------------------------------------|
B|---3------------3---------------------------------------3--------------|
G|---0----0h2p0------0----0--0h2p0----------2---------------0---0--------|
D|---0--------------------------------0h2---------0h2-------------2------|
A|---x-----------------------------------------3-------------------------|
E|---3-------------------------------------------------------------------|

what do you think? otherwise 5/5*! :D

guest
You may want to rate the tab now too:
select rating
Wanna post a correction for this tab? Suggest correction