Oops, an error
Loading. Please wait.

Oxygen Tab

version 1
version 1

Intro

Whole song

11,203 views 6 this week
1 commentread comment
1 2 3 4 5
3 more votes to show rating
add to favorites
launch autoscroll
font size
0
reset
how to read this tab
guitar tuner
Autoscroll
slow
fast
+/-
esc
set tempo
stop
Help us to improve Ultimate-Guitar.com Take our survey!
×
Difficulty
Capo
novice
1st fret
So... basing this off the Oxygen chords tab... I think this is the intro. Im sorta
to have figured this out because this is the first tab i've really done by myself...either
it is probably prone to error consider i am basically a rookie at guitar. however, if 
with more experience feels like listening to the song and correcting this, that'd be
here it is:

CAPO 1

e 2--|2--|2--|3--|3--|3--|5--|5--|5--|3--|3--|3--| (Propably repeat 2x)
B -3-|-3-|-3-|-3-|-3-|-3-|-3-|-3-|-3-|-3-|-3-|-3-|
G --2|--2|---|--2|--2|---|--2|--2|---|--2|--2|--2|
D ---|---|---|---|---|---|---|---|---|---|---|---|
A ---|---|---|---|---|---|---|---|---|---|---|---|
E ---|---|---|---|---|---|---|---|---|---|---|---|

Hopefully this works out and is close enough for an expert to use and figure out the
way... but for now, I like it.
Suggest correction
Give kudos to tab author, rate the tab!
1 2 3 4 5
comments
print report bad tab
1 comment total.
0 reply
ledisnomad 10 Aug 28, 2008 04:33 PM

Here's a different version where you can slide from the G to A and back to the G...
Capo 1


D G A G
|-2---2---2--|-3---3---3--|-5---5---5--|-3---3---3--|
|--3---3---3-|--3---3---3-|--5---5---5-|--3---3---3-|
|---2---2----|---4---4----|---6---6----|---4---4----|
|------------|------------|------------|------------|
|------------|------------|------------|------------|


However, even though this is easier, I don't think this actually explains the chords, despite all the tab that shows this. If you listen to the bass you get D, E, F# which doesn't follow the chord progression above. Still doesn't solve it, but this is a little easier and to my ear, sounds a little closer.

guest
You may want to rate the tab now too:
select rating
Wanna post a correction for this tab? Suggest correction