Oops, an error
Loading. Please wait.

What You Got tab

version 2
version 2

Whole song

Interactive

17,441 views 1 this week
2 commentsread comments
1 2 3 4 5
1 last vote to show rating
add to favorites
×
Save as Personal and add changes to this tab that will be seen only by you. Learn more ›
×
You can save this tab as Personal to edit and correct it or add notes. All changes will be seen only by you. Learn more »
launch autoscroll
font size
0
reset
how to read this tab
guitar tuner
edit
Autoscroll
slow
fast
+/-
esc
set tempo
stop
Author
Difficulty
What You Got - Colby O' Donis
Tabbed by: Christian B. of EDEN

www.myspace.com/evenifyourvoiceshakes

Tuning:STANDARD

So Basically three chords:


e|x    e|x  e|x
b|9    b|8  b|6
g|8    g|8  g|5
d|10   d|8  d|6
a|8    a|x  a|4
e|x    e|8  e|x

Strum it during the chorus, im not sure how to tab out rhythm haha
but heres the verse for you guys:
e|-------------------------------------------------------------------------------|
B|----------------------9--------------------------------------------------------|
G|--------8---------------------8------------------------------------------------|
D|----10-------------------------------10----------------------------------------|
A|--8------------8---------------------------------------------------------------|
E|-------------------------------------------------------------------------------|

e|-------------------------------------------------------------------------------|
B|------------------------------8------------------------------------------------|
G|---------------8----------------------8----------------------------------------|
D|--------8----------------------------------8-----------------------------------|
A|-------------------------------------------------------------------------------|
E|---8-------------------8-------------------------------------------------------|

e|---------------------------------------------------------------------------------------|
B|---------------------------6---------------6-------------------------6---8-------------|
G|-----------------5--------------5------------------------------------5---8-------------|
D|----------6-------------------------6------------------6-------------6---8-------------|
A|----4----------------4--------------------------4-----------4--------4-----------------|
E|-------------------------------------------------------------------------8-------------|

then repeat, and you gots da verse.

Have fun jamming!

            
            
Suggest correction
Creating personal tab
Creating personal tab
You can edit any tab online and save it as your Personal.

You can edit, replace or remove any tab part or add personal notes – all changes will be seen only by you.

Personal tabs can be accessed anytime from any device, even offline.
Learn more »
Give kudos to tab author, rate the tab!
1 2 3 4 5
comments
print report bad tab
2 comments total.
0 reply
x_bass009 163 Jun 08, 2008 03:47 PM

the chords are right
but i dont think the plucking is right

0 reply
Cveezy 73 Jun 16, 2008 08:28 PM

Uhm, the tab is correct, but the timing for it is waaack, my bad. Check one of his youtube vids for timing?

guest
You may want to rate the tab now too:
select rating
Wanna post a correction for this tab? Suggest correction