Oops, an error
Loading. Please wait.

Ardilla tab

by Colchon
14 views 1 this week
no commentswrite comment
1 2 3 4 5
3 more votes to show rating
add to favorites
×
Save as Personal and add changes to this tab that will be seen only by you. Learn more ›
×
You can save this tab as Personal to edit and correct it or add notes. All changes will be seen only by you. Learn more »
launch autoscroll
font size
0
reset
how to read this tab
guitar tuner
edit
Autoscroll
slow
fast
+/-
esc
set tempo
stop
Esta cancion esta muy facil. cualkier duda mi correo
es simplemente_edu_777@

Tuning : standar EBGDAE

///////////////////////////
/                         /
/ HN - harmonico natural  /
/ ~  - vibrato            /
/ .  - paml mute          /
/                         /
///////////////////////////


---------------------------------------------------
///////////////////////////////////////////////////
/PRIMERA GUITARRA                                 /
///////////////////////////////////////////////////
---------------------------------------------------

INTRO

                                       -|
0:00                                    |
E|------------------------------------| |
B|------------------------------------| |
G|------------------------------------| |
D|------------------------------------| |
A|---10-9-7-7-7-7-10-9-7-7-7-7--------| |
E|------------------------------------| |
                                        |x4
                                        |
E|------------------------------------| |
B|------------------------------------| |
G|------------------------------------| |
D|------------------------------------| |
A|-------7---7------9---9-------------| |
E|---5-5---5--5-7-7---7---7-----------| |
                                        |
                                       -|

0:24
E|--------------------------------------------|
B|--------------------------------------------|
G|--------------------------------------------|
D|--------------------------------------------|
A|---10-10-9-9-7-7-7-7-7-10-10-9-9-7-7-7-7-7--|
E|--------------------------------------------|

E|------------------------------------|
B|------------------------------------|
G|------------------------------------|
D|------------------------------------|
A|-----------7---7----------9---9-----|
E|---5-5-5-5---5--5-7-7-7-7---7---7---|


E|--------------------------------------------|
B|--------------------------------------------|
G|--------------------------------------------|
D|--------------------------------------------|
A|---10-10-9-9-7-7-7-7-7-10-10-9-9-7-7-7-7-7--|
E|--------------------------------------------|

E|---------------------------------------|
B|---------------------------------------|
G|---------------------------------------|
D|---------------------------------------|
A|-----------7---7----------9-7----------|
E|---5-5-5-5---5--5-7-7-7-7-----10-9-10--|


ESTROFA
0:42
E|---------------------------------------|
B|---------------------------------------|
G|--7-777777-----------------------------|
D|--7-777777-7-777777-5-555555-7-777777--|
A|--5-555555-7-777777-5-555555-7-777777--|
E|-----------5-555555-3-333333-5-555555--|
      ......   ......   ......   ......


E|------------------------------------|
B|------------------------------------|
G|---7777777--------------------------|
D|---7777777-7777777-5555555-7777777--|
A|---5555555-7777777-5555555-7777777--|
E|-----------5555555-3333333-5555555--|


                                       -|
                                        |
E|------------------------------------| |
B|------------------------------------| |
G|------------------------------------| |
D|------------------------------------| |
A|---10-9-7-7-7-7-10-9-7-7-7-7--------| |
E|------------------------------------| |
                                        |x2
                                        |
E|------------------------------------| |
B|------------------------------------| |
G|------------------------------------| |
D|------------------------------------| |
A|-------7---7------9---9-------------| |
E|---5-5---5--5-7-7---7---7-----------| |
                                        |
                                       -|


CORO
1:36

E|------------------------------------|
B|------------------------------------|
G|---7--6-7-6-------------------------|
D|---7--6-7-6---9999-7777-5555-777----|
A|---5--4-5-4---9999-7777-5555-777----|
E|--------------7777-5555-3333-555----|


E|--------------------------------------------|
B|--------------------------------------------|
G|---7--6-7-6--11111111-12-11-9-11-9-7-9-7-6--|
D|---7--6-7-6--x-x-x-x--x--x--x-x--x-x-x-x-x--|
A|---5--4-5-4--9-9-9-9--10-9--7-9--7-5-7-5-4--|
E|--------------------------------------------|


ESTROFA
1:50

                                       -|
E|------------------------------------| |
B|------------------------------------| |
G|------------------------------------| |
D|------------------------------------| |
A|---10-9-7-7-7-7-10-9-7-7-7-7--------| |
E|------------------------------------| |
                                        |x2
                                        |
E|------------------------------------| |
B|------------------------------------| |
G|------------------------------------| |
D|------------------------------------| |
A|-------7---7------9---9-------------| |
E|---5-5---5--5-7-7---7---7-----------| |
                                        |
                                       -|

2:03
E|------------------------------------|
B|------------------------------------|
G|---7-777777-7-777777-7-777777-7-7-7-|
D|---7-777777-7-777777-7-777777-7-7-7-|
A|---5-555555-5-555555-5-555555-5-5-5-|
E|------------------------------------|
       ......   ......   ......


E|------------------------------------|
B|------------------------------------|
G|------------------------------------|
D|---7-777777-7-777777-7-777777-7-7-7-|
A|---7-777777-7-777777-7-777777-7-7-7-|
E|---5-555555-5-555555-5-555555-5-5-5-|
       ......   ......   ......


E|------------------------------------|
B|------------------------------------|
G|------------------------------------|
D|---5-555555-5-555555-5-555555-5-5-5-|
A|---5-555555-5-555555-5-555555-5-5-5-|
E|---3-333333-3-333333-3-333333-3-3-3-|
       ......   ......   ......


E|------------------------------------|
B|------------------------------------|
G|------------------------------------|
D|---7-777777-7-777777-7-777777-7-7-7-|
A|---7-777777-7-777777-7-777777-7-7-7-|
E|---5-555555-5-555555-5-555555-5-5-5-|
       ......   ......   ......

E|------------------------------------|
B|------------------------------------|
G|---7777777--------------------------|
D|---7777777-7777777-5555555-7777777--|
A|---5555555-7777777-5555555-7777777--|
E|-----------5555555-3333333-5555555--|


CORO
2:31

E|------------------------------------|
B|------------------------------------|
G|---7--6-7-6-------------------------|
D|---7--6-7-6---9999-7777-5555-777----|
A|---5--4-5-4---9999-7777-5555-777----|
E|--------------7777-5555-3333-555----|


E|------------------------------------------------|
B|------------------------------------------------|
G|---7--6-7-6--11111111-12-11-9-11-9-7-9-7-6--7~--|
D|---7--6-7-6--x-x-x-x--x--x--x-x--x-x-x-x-x--7~--|
A|---5--4-5-4--9-9-9-9--10-9--7-9--7-5-7-5-4--5~--|
E|------------------------------------------------|


INTERLUDE
2:49
                                       -|
E|------------------------------------| |
B|------------------------------------| |
G|-------6-----6-----7-----6-----6----| |
D|---7-7---7-7---7-7---7-7---7-7---7--| |
A|------------------------------------| |TOCAR ESTO
E|------------------------------------| |DESDE EL
     . . . . . . . . . . . . . . . .    |MIN 2:49
                                        |HASTA EL
E|------------------------------------| |MIN 3:23
B|------------------------------------| |
G|-------6-----6-----9-----7-----6----| |
D|---7-7---7-7---7-7---7-7---7-7---7--| |
A|------------------------------------| |
E|------------------------------------| |
     . . . . . . . . . . . . . . . .    |
                                       -|

3:24
E|------------------------------------|
B|------------------------------------|
G|---7~---6-7~--6-7~--6-7-9-11-12-----|
D|---7~---6-7~--6-7~--6-7-9-11-12-----|
A|---5~---4-5~--6-5~--4-5-7-9--10-----|
E|------------------------------------|


3:36                                   -|
                                        |
E|------------------------------------| |
B|------------------------------------| |
G|------------------------------------| |
D|------------------------------------| |
A|---10-9-7-7-7-7-10-9-7-7-7-7--------| |
E|------------------------------------| |
                                        |x2
                                        |
E|------------------------------------| |
B|------------------------------------| |
G|------------------------------------| |
D|------------------------------------| |
A|-------7---7------9---9-------------| |
E|---5-5---5--5-7-7---7---7-----------| |
                                        |
                                       -|


3:49
E|--------------------------------------------|
B|--------------------------------------------|
G|--------------------------------------------|
D|--------------------------------------------|
A|---10-10-9-9-7-7-7-7-7-10-10-9-9-7-7-7-7-7--|
E|--------------------------------------------|

E|------------------------------------|
B|------------------------------------|
G|------------------------------------|
D|------------------------------------|
A|-----------7---7----------9---9-----|
E|---5-5-5-5---5--5-7-7-7-7---7---7---|


E|--------------------------------------------|
B|--------------------------------------------|
G|--------------------------------------------|
D|--------------------------------------------|
A|---10-10-9-9-7-7-7-7-7-10-10-9-9-7-7-7-7-7--|
E|--------------------------------------------|

E|---------------------------------------|
B|---------------------------------------|
G|---------------------------------------|
D|---------------------------------------|
A|-----------7---7----------9-7----------|
E|---5-5-5-5---5--5-7-7-7-7-----10-9-10--|


E|-------------------------|
B|-------------------------|
G|--------7~---------------|
D|--------7~---------------|
A|--------5~---------------|
E|-------------------------|


---------------------------------------------------
///////////////////////////////////////////////////
/SEGUNDA GUITARRA                                 /
///////////////////////////////////////////////////
---------------------------------------------------

INTRO


0:12
E|----HN(7)----------------------------------------|
B|-------------------------------------------------|
G|----------7~-------------------------------------|
D|----------7~-----7~-----5~------7~---(pickslide)-|
A|----------5~-----7~-----5~------7~---(pickslide)-|
E|-----------------5~-----3~------5~---(pickslide)-|


0:25
E|------------------------------------|
B|------------------------------------|
G|---7777777--------------------------|
D|---7777777-7777777-5555555-7777777--|
A|---5555555-7777777-5555555-7777777--|
E|-----------5555555-3333333-5555555--|


E|------------------------------------|
B|------------------------------------|
G|---7-777777-7-777777-7-777777-7-7-7-|
D|---7-777777-7-777777-7-777777-7-7-7-|
A|---5-555555-5-555555-5-555555-5-5-5-|
E|------------------------------------|
       ......   ......   ......


ESTROFA
0:42
E|---------------------------------------|
B|---------------------------------------|
G|--7-777777-----------------------------|
D|--7-777777-7-777777-5-555555-7-777777--|
A|--5-555555-7-777777-5-555555-7-777777--|
E|-----------5-555555-3-333333-5-555555--|
      ......   ......   ......   ......


E|------------------------------------|
B|------------------------------------|
G|---7777777--------------------------|
D|---7777777-7777777-5555555-7777777--|
A|---5555555-7777777-5555555-7777777--|
E|-----------5555555-3333333-5555555--|


1:09
E|------------------------------------|
B|------------------------------------|
G|---7777777--------------------------|
D|---7777777-7777777-5555555-7777777--|
A|---5555555-7777777-5555555-7777777--|
E|-----------5555555-3333333-5555555--|


1:23
E|------------------------------------|
B|------------------------------------|
G|---7~-------------------------------|
D|---7~-----------(pickslide)---------|
A|---5~-----------(pickslide)---------|
E|----------------(pickslide)---------|


CORO
1:36

E|------------------------------------|
B|------------------------------------|
G|---7--6-7-6-------------------------|
D|---7--6-7-6---9999-7777-5555-777----|
A|---5--4-5-4---9999-7777-5555-777----|
E|--------------7777-5555-3333-555----|


E|--------------------------------------------|
B|--------------------------------------------|
G|---7--6-7-6--11111111-12-11-9-11-9-7-9-7-6--|
D|---7--6-7-6--x-x-x-x--x--x--x-x--x-x-x-x-x--|
A|---5--4-5-4--9-9-9-9--10-9--7-9--7-5-7-5-4--|
E|--------------------------------------------|


INTRO
1:51
E|------------------------------------|
B|------------------------------------|
G|--7~--------------------------------|
D|--7~-----7~-----5~------7~----------|
A|--5~-----7~-----5~------7~----------|
E|---------5~-----3~------5~----------|


ESTROFA
2:03

E|------------------------------------|
B|------------------------------------|
G|---7-777777-7-777777-7-777777-7-7-7-|
D|---7-777777-7-777777-7-777777-7-7-7-|
A|---5-555555-5-555555-5-555555-5-5-5-|
E|------------------------------------|
       ......   ......   ......


E|------------------------------------|
B|------------------------------------|
G|------------------------------------|
D|---7-777777-7-777777-7-777777-7-7-7-|
A|---7-777777-7-777777-7-777777-7-7-7-|
E|---5-555555-5-555555-5-555555-5-5-5-|
       ......   ......   ......


E|------------------------------------|
B|------------------------------------|
G|------------------------------------|
D|---5-555555-5-555555-5-555555-5-5-5-|
A|---5-555555-5-555555-5-555555-5-5-5-|
E|---3-333333-3-333333-3-333333-3-3-3-|
       ......   ......   ......


E|------------------------------------|
B|------------------------------------|
G|------------------------------------|
D|---7-777777-7-777777-7-777777-7-7-7-|
A|---7-777777-7-777777-7-777777-7-7-7-|
E|---5-555555-5-555555-5-555555-5-5-5-|
       ......   ......   ......


E|------------------------------------|
B|------------------------------------|
G|---7777777--------------------------|
D|---7777777-7777777-5555555-7777777--|
A|---5555555-7777777-5555555-7777777--|
E|-----------5555555-3333333-5555555--|


CORO
2:31

E|------------------------------------|
B|------------------------------------|
G|---7--6-7-6-------------------------|
D|---7--6-7-6---9999-7777-5555-777----|
A|---5--4-5-4---9999-7777-5555-777----|
E|--------------7777-5555-3333-555----|


E|------------------------------------------------|
B|------------------------------------------------|
G|---7--6-7-6--11111111-12-11-9-11-9-7-9-7-6--7~--|
D|---7--6-7-6--x-x-x-x--x--x--x-x--x-x-x-x-x--7~--|
A|---5--4-5-4--9-9-9-9--10-9--7-9--7-5-7-5-4--5~--|
E|------------------------------------------------|


INTERLUDE
3:01

E|------------------------------------|TOCAR ESTO
B|------------------------------------|DESDE EL
G|------9-----9-----11-----11-----11--|MIN 3:01
D|--9-9---9-9---9-9----9-9----9-9-----|HASTA EL
A|------------------------------------|MIN 3:23
E|------------------------------------|


3:24
E|------------------------------------|
B|------------------------------------|
G|---7~---6-7~--6-7~--6-7-9-11-12-----|
D|---7~---6-7~--6-7~--6-7-9-11-12-----|
A|---5~---4-5~--6-5~--4-5-7-9--10-----|
E|------------------------------------|


3:36
E|------------------------------------------|
B|------------------------------------------|
G|--7~--------------------------------------|
D|--7~-----7~-----5~------7~---(pickslide)--|
A|--5~-----7~-----5~------7~---(pickslide)--|
E|---------5~-----3~------5~---(pickslide)--|


3:49
E|------------------------------------|
B|------------------------------------|
G|--7777777---------------------------|
D|--7777777-7777777-5555555-7777777---|
A|--5555555-7777777-3333333-7777777---|
E|----------5555555-3333333-5555555---|


E|-------------------------|
B|-------------------------|
G|--------7~---------------|
D|--------7~---------------|
A|--------5~---------------|
E|-------------------------|


FIN...

            
            
Suggest correction
Creating personal tab
Creating personal tab
You can edit any tab online and save it as your Personal.

You can edit, replace or remove any tab part or add personal notes – all changes will be seen only by you.

Personal tabs can be accessed anytime from any device, even offline.
Learn more »
Give kudos to tab author, rate the tab!
1 2 3 4 5
comments
print report bad tab
guest
Wanna post a correction for this tab? Suggest correction