Oops, an error
Loading. Please wait.

Aterrizar tab

by Colchon
31 views 1 this week
no commentswrite comment
1 2 3 4 5
3 more votes to show rating
add to favorites
×
Save as Personal and add changes to this tab that will be seen only by you. Learn more ›
×
You can save this tab as Personal to edit and correct it or add notes. All changes will be seen only by you. Learn more »
launch autoscroll
font size
0
reset
how to read this tab
guitar tuner
edit
Autoscroll
slow
fast
+/-
esc
set tempo
stop
(Nota acabo de corregir un error q tenia la tab ya esta
totalmente bien ;))
Me sorprende que nadie saque tabs de Colchon!!!
A partir de oy me voy a dedicar a sacar sus canciones
asi q les pido a toda la banda
que agan el favor de ayudar, si encuentran algún
error en la tab corríjanlo, no nada + califiquen
y se sientan los muy chin...
bueno va:
Mas info abajo!!!
Simbologia:
~ Dejar vibrar
/ slide
pm... palm mute
Intro:

1RA LIRA
e|-----------------------------------------------------------------|
B|-----5-----5---------5-----5---------7-----7---------7-----7-----|
G|---5---5-----5-----5---5-----5-?---7---7-----7-----7---7-----7---|
D|---------7-----7---------7-----7---------9-----9---------9-----9-|
A|-7---------------7---------------9---------------9---------------|
E|-----------------------------------------------------------------|
2DA LIRA
e|---------------------------------------------------------------------|
B|---------------------------------------------------------------------|
G|-------------------------?-------------------------------------------|
D|-----------------------------------------------------------------7-7-|
A|-----------------------------------------------------------------7-7-|
E|-----------------------------------------------------------------5-5-|

1RA LIRA
e|-----------------------------------------------------------------|
B|-----5-----5---------5-----5---------7-----7---------7-----7-----|
G|---5---5-----5-----5---5-----5-?---7---7-----7-----7---7-----7---|
D|---------7-----7---------7-----7---------9-----9---------9-----9-|
A|-7---------------7---------------9---------------9---------------|
E|-----------------------------------------------------------------|
2DA LIRA
e|-------------------------------------------|
B|-------------------------------------------|
G|-------------------------------------------|
D|------------------------------------9~-7-7-|
A|------------------------------------9~-7-7-|
E|------------------------------------7~-5-5-|

1RA LIRA
e|-----------------------------------------------------------------|
B|-----5-----5---------5-----5---------7-----7---------7-----7-----|
G|---5---5-----5-----5---5-----5-?---7---7-----7-----7---7-----7---|
D|---------7-----7---------7-----7---------9-----9---------9-----9-|
A|-7---------------7---------------9---------------9---------------|
E|-----------------------------------------------------------------|
2DA LIRA
e|-------------------------------------------|
B|-------------------------------------------|
G|-------------------------------------------|
D|------------------------------------9~-7-7-|
A|------------------------------------9~-7-7-|
E|------------------------------------7~-5-5-|

1RA LIRA
e|-----------------------------------------------------------------|
B|-----5-----5---------5-----5---------7-----7---------7-----7-----|
G|---5---5-----5-----5---5-----5-?---7---7-----7-----7---7-----7---|
D|---------7-----7---------7-----7---------9-----9---------9-----9-|
A|-7---------------7---------------9---------------9---------------|
E|-----------------------------------------------------------------|
2DA LIRA
e|---------------------------------------------------------------|
B|-------------------------?--------------------------12-10-9----|
G|----------------------------------9~--9-9/11--9-11-------------|
D|----------------------------------9~---------------------------|
A|----------------------------------7~---------------------------|
E|---------------------------------------------------------------|

1RA LIRA
e|-----------------------------------------------------------------|
B|-----5-----5---------5-----5---------7-----7---------7-----7-----|
G|---5---5-----5-----5---5-----5-?---7---7-----7-----7---7-----7---|
D|---------7-----7---------7-----7---------9-----9---------9-----9-|
A|-7---------------7---------------9---------------9---------------|
E|-----------------------------------------------------------------|
2DA LIRA
e|-------------------------------------------------------------------|
B|-9--9--9--9--12--10--9--10--9--------------------------------------|
G|-------------------------?----(9)-(10)-(9)-8-8-8-8-9-9-9/11-8-9-11-|
D|-------------------------------------------------------------------|
A|-------------------------------------------------------------------|
E|-------------------------------------------------------------------|

1RA LIRA
e|-----------------------------------------------------------------|
B|-----5-----5---------5-----5---------7-----7---------7-----7-----|
G|---5---5-----5-----5---5-----5-?---7---7-----7-----7---7-----7---|
D|---------7-----7---------7-----7---------9-----9---------9-----9-|
A|-7---------------7---------------9---------------9---------------|
E|-----------------------------------------------------------------|
2DA LIRA
e|----------------------------------------------------------------|
B|-12--10--9--9~/12-10-9-10-9--7----------------------------------|
G|-------------------------?-----9-11-9-8-9-11-9-8-9-8-9/11-------|
D|------------------------------------------------------------7-7-|
A|------------------------------------------------------------7-7-|
E|------------------------------------------------------------5-5-|

1RA LIRA
e|-----------------------------------------------------------------|
B|-----5-----5---------5-----5---------7-----7---------7-----7-----|
G|---5---5-----5-----5---5-----5-?---7---7-----7-----7---7-----7---|
D|---------7-----7---------7-----7---------9-----9---------9-----9-|
A|-7---------------7---------------9---------------9---------------|
E|-----------------------------------------------------------------|
2DA LIRA
e|--------------------------------------------------------|
B|--------------------------------------------------------|
G|-------------------------?------------------------------|
D|--------------------------------------------------------|
A|--------------------------------------------------------|
E|--------------------------------------------------------|

1RA LIRA
e|-----------------------------------------------------------------|
B|-----5-----5---------5-----5---------7-----7---------7-----7-----|
G|---5---5-----5-----5---5-----5-?---7---7-----7-----7---7-----7---|
D|---------7-----7---------7-----7---------9-----9---------9-----9-|
A|-7---------------7---------------9---------------9---------------|
E|-----------------------------------------------------------------|
2DA LIRA
e|-----------------------------------------------------------------|
B|------10-101010101010101010101010-101010101010101010101010101010-|
G|----9----9-9-9-9-9-9-9-9-9-9-9-9--9?9-9-9-9-9-9-9-9-9-9-9-9-9-9--|
D|--7----------7----7----7---7-----7------7-----7-----7--7----7----|
A|-----------------------------------------------------------------|
E|-----------------------------------------------------------------|

1RA LIRA
e|-------------------------------------------------------|
B|-------------------------------------------------------|
G|-------------------------?-----------------------------|
D|-------------------------------------------------------|
A|-------------------------------------------------------|
E|-------------------------------------------------------|
2DA LIRA
e|---------------------|
B|---------------------|
G|---------------------|
D|--7-7-7-7--5---------|
A|--7-7-7-7--5---------|
E|--5-5-5-5--3---------|
PM ...........

1RA LIRA
e|-------------------------------------------------------------|
B|-----5-----5---------5-----5---------7-----7---------7-----7-|
G|---5---5-----5-----5---5-----5-?---7---7-----7-----7---7-----|
D|---------7-----7---------7-----7---------9-----9---------9---|
A|-7---------------7---------------9---------------9-----------|
E|-------------------------------------------------------------|
2DA LIRA
e|-----------------------------------------------------|
B|-1212121212XX----------------------------------------|
G|-1111111111XX--X6------?-----------------------------|
D|-9-9-9-9-9-XX----------------------------------------|
A|-----------------------------------------------------|
E|-----------------------------------------------------|

1RA LIRA
e|-------------------------------------------------------|
B|-------------------------------------------------------|
G|-------------------------?-----------------------------|
D|-------------------------------------------------------|
A|-------------------------------------------------------|
E|-------------------------------------------------------|
2DA LIRA
e|-------------------------------------------------------|
B|-------------------------------------------------------|
G|-------------------------?-----------------------------|
D|-7-7-7-7-7-7-7-7-7-5---------------------------------------------|
A|-7-7-7-7-7-7-7-7-7-5---------------------------------------------|
E|-5-5-5-5-5-5-5-5-5-3---------------------------------------------|
pm....................

1RA LIRA
e|---------------------------------------------------|
B|-12------12p0-9-9h10--12------9/10/12-12-12-12-----|
G|-----9-------------------?9------------------------|
D|---------------------------------------------------|
A|---------------------------------------------------|
E|---------------------------------------------------|
2DA LIRA(esta m fallo un poco, pero se olle bien)
e|---------------------------------------------------------|
B|---------------------------------------------------------|
G|-------------------------?-------------------------------|
D|---------------------------------------------------------|
A|--7--7--5-5/4----------------7-7--5-5/4------------------|
E|--------------7-5-4-4-5-4/7--------------7--5-4--4/5/6/7-|
Taaa...   tan vacia esta la almohada desde

1RA LIRA
e|---------------------------------------------------|
B|-12------12p0-9-9h10--12------9/10/12-12-12-12-----|
G|-----9-------------------?9------------------------|
D|---------------------------------------------------|
A|---------------------------------------------------|
E|---------------------------------------------------|
2DA LIRA
e|---------------------------------------------------------|
B|---------------------------------------------------------|
G|-------------------------?-------------------------------|
D|---------------------------------------------------------|
A|--7--7--5-5/4----------------7-7--5-5/4------------------|
E|--------------7-5-4-4-5-4/7--------------7--5-4--4/5/6/7-|
que?            deje de soñar y aterricé

1RA LIRA
e|-----------------------------------------------------|
B|--1212-1212x-12-1010-1010x-10-99-99x-9-1010-1010x-10-|
G|--x-x--x-x-x-x--x-x--x-x-x-x--xx-xxx-x-x-x--x-x-x-x--|
D|--9-9--9-9-x-9--7-7--7-7-x-7--66-66x-6-7-7--7-7-x-7--|
A|-----------------------------------------------------|
E|-----------------------------------------------------|
2DA LIRA
e|----------------------------------------------------|
B|----------------------------------------------------|
G|--99--99-x--9--77-77--x--7--66-66-x--6--77-77--X-7--|
D|--xx--xx-x--x--xx-xx--x--x--xx-xx-x--x--xx-xx--x-x--|
A|--77--77-x--7--55-55--x--5--44-44-x--4--55-55--x-5--|
E|----------------------------------------------------|
     noooo             maaaas               volaaaar

1RA LIRA
e|---------------------------------------------------------|
B|--1212-1212xx-12-1010-1010xx-10-99-99xx-9-1010-1010xx-10-|
G|--1111-1111xx-11-9-9--9-9-xx-9--88-88xx-8-9-9--9-9-xx-9--|
D|--9-9--9-9-xx-9--7-7--7-7-xx-7--66-66xx-6-7-7--7-7-xx-7--|
A|---------------------------------------------------------|
E|---------------------------------------------------------|
2DA LIRA
e|--------------------------------------------------------|
B|--------------------------------------------------------|
G|--------------------------------------------------------|
D|-------9999-9---------7777-7-----6666-6-------7777-7---|
A|-------9999-9---------7777-7-----6666-6-------7777-7---|
E|-------7777-7---------5555-5-----4444-4-------5555-5---|
PM      .....          .....      .....        .....
                      deje de soñar y aterricé

1RA LIRA
e|-------------------------19-------21-----------19--|
B|--1212-1212-21-1010-1010----99-99----1010-1010-----|
G|--1111-1111----9-9--9-9-----88-88----9-9--9-9------|
D|--9-9--9-9-----7-7--7-7-----66-66----7-7--7-7------|
A|---------------------------------------------------|
E|---------------------------------------------------|
2DA LIRA
e|---------------------------------------------|
B|---------------------------------------------|
G|---------------------------------------------|
D|--99---99------77---77------66-66----77---77-|
A|--99---99------77---77------66-66----77---77-|
E|--77---77------55---55------44-44----55---55-|

1RA LIRA
e|----------------------------------------------------------|
B|--1212-1212-------1010-1010-------99-99--------1010-1010--|
G|--1111-1111---9---9-9--9-9----8---88-88---9----9-9--9-9---|
D|--9-9--9-9--7---7-7-7--7-7--6---6-66-66-7---7--7-7--7-7---|
A|----------------------------------------------------------|
E|----------------------------------------------------------|
2DA LIRA
e|---------------------------------------------|
B|---------------------------------------------|
G|---------------------------------------------|
D|--99---99------77---77------66-66----77---77-|
A|--99---99------77---77------66-66----77---77-|
E|--77---77------55---55------44-44----55---55-|

1RA LIRA
e|--------------------------------------------------------|
B|--12121212-12----10101010-10---9999-9----10101010-10----|
G|--11111111-11-x2-9-9-9-9--9-x2-8888-8-x2-9-9-9-9--9-x2--| x2
D|--9-9-9-9--9-----7-7-7-7--7----6666-6----7-7-7-7--7-----|
A|--------------------------------------------------------|
E|--------------------------------------------------------|
2DA LIRA
e|--------------------------------------------------------|
B|--------------------------------------------------------|
G|--6666666666--4444444444--2222222222222--4444444444444--|x2 todo
D|--6666666666--4444444444--2222222222222--4444444444444--|
A|--4444444444--2222222222--0000000000000--2222222222222--|
E|--------------------------------------------------------|
  YO QUIERO!!!! Repetir el recuerdo, que no fue el momento
   y  ahora  todo  vuelve  a  ser  normaaaaaal

1RA LIRA
e|-----------------------------|
B|--1010101010-1010101010-10---|
G|--9-9-9-9-9--9-9-9-9-9--9----|
D|--7-7-7-7-7--7-7-7-7-7--7----|
A|-----------------------------|
E|-------------------------?---|
2DA LIRA
e|-----------------------------|
B|-----------------------------|
G|-66666--66666-6~-------------|
D|-xxxxx--xxxxx-x~-------------|
A|-44444--44444-4~-------------|
E|-----------------------------|
   MALDITO YO!!!

1RA LIRA
e|--7---------------7---------------7---------------7----|->
B|----5-4-5-4-5-4-5---5-4-5-4-5-4-5---5-4-5-4-5-4-5------|->
G|-------------------------?-----------------------------|->
D|-------------------------------------------------------|->
A|-------------------------------------------------------|->
E|-------------------------------------------------------|->

->|--7--5-4-5--4-2-4~-------------------------------------|
->|-------------------------------------------------------|
->|-------------------------?-----------------------------|
->|-------------------------------------------------------|
->|-------------------------------------------------------|
->|-------------------------------------------------------|
2DA LIRA
e|--------------------------------------------------------|
B|--------------------------------------------------------|
G|--6666666666--4444444444--2222222222222--4444444444444--|
D|--6666666666--4444444444--2222222222222--4444444444444--|
A|--4444444444--2222222222--0000000000000--2222222222222--|
E|--------------------------------------------------------|
    Para siempre............

1RA LIRA
e|--7---------------7---------------7---------------7----|->
B|----5-4-5-4-5-4-5---5-4-5-4-5-4-5---5-4-5-4-5-4-5------|->
G|-------------------------?-----------------------------|->
D|-------------------------------------------------------|->
A|-------------------------------------------------------|->
E|-------------------------------------------------------|->

->|--7--5-4-5--4------------------------------------------|
->|--------------5-4-5~-----------------------------------|
->|-------------------------?-----------------------------|
->|-------------------------------------------------------|
->|-------------------------------------------------------|
->|-------------------------------------------------------|
2DA LIRA
e|--------------------------------------------------------|
B|--------------------------------------------------------|
G|--6666666666--4444444444--2222222222222--4444444444444--|x2 todo
D|--6666666666--4444444444--2222222222222--4444444444444--|
A|--4444444444--2222222222--0000000000000--2222222222222--|
E|--------------------------------------------------------|
  Para siempre.....(para siempre)

1RA LIRA
e|---------------------------------------------------|
B|-12------12p0-9-9h10--12------9/10/12-12-12-12-----|
G|-----9-------------------?9------------------------|
D|---------------------------------------------------|
A|---------------------------------------------------|
E|---------------------------------------------------|
2DA LIRA
e|-----------------------------------------|
B|-----------------------------------------|
G|-------------------------?---------------|
D|-----------------------------------------|
A|--7------------9-7-6---5-5-5/7-5-7-------|
E|-----5-5-5/7------------------------7----|

1RA LIRA
e|---------------------------------------------------|
B|-12------12p0-9-9h10--12------9/10/12-12-12-12-----|
G|-----9-------------------?9------------------------|
D|---------------------------------------------------|
A|---------------------------------------------------|
E|---------------------------------------------------|
2DA LIRA
e|-----------------------------------------|
B|-----------------------------------------|
G|-------------------------?---------------|
D|-----------------------------------------|
A|--7------------9-7-6---5-5-5/7-5-7-------|
E|-----5-5-5/7------------------------7----|
  Taaa.....(ta.) tal vez es ora de aterrizar

1RA LIRA
e|--------------------------------------------------------------|
B|---7---7---7---7---7---5---5---5---5---5---4---4---4---4---4--|
G|-4---4---4---4---4---4---4---4---4---4-?-4---4---4---4---4----|
D|--------------------------------------------------------------|
A|--------------------------------------------------------------|
E|--------------------------------------------------------------|

>|-------------------------------------------------------|
>|--5---5---5---5---5------------------------------------|
>|----4---4---4---4-----------?--------------------------|
>|-------------------------------------------------------|
>|-------------------------------------------------------|
>|-------------------------------------------------------|
2DA LIRA
e|----------------------------------------------------------------|
B|----------------------------------------------------------------|
G|-------------------------?--------------------------------------|
D|----------------------------------------------------------------|
A|-7-7-7-7-7-7-7-5-5-5-5-5-5-5-4-4-4-4-4-4-4-4-5-5-5-5-5-5-5-5-5--|
E|----------------------------------------------------------------|
   Repetir el recuerdo... que no fue el momento
1RA LIRA
e|--------------------------------------------------------------|
B|---7---7---7---7---7---5---5---5---5---5---4---4---4---4---4--|
G|-4---4---4---4---4---4---4---4---4---4-?-4---4---4---4---4----|
D|--------------------------------------------------------------|
A|--------------------------------------------------------------|
E|--------------------------------------------------------------|

>|-------------------------------------------------------|
>|--5---5---5---5---5------------------------------------|
>|----4---4---4---4-----------?--------------------------|
>|-------------------------------------------------------|
>|-------------------------------------------------------|
>|-------------------------------------------------------|
2DA LIRA
e|----------------------------------------------------------------|
B|----------------------------------------------------------------|
G|-------------------------?--------------------------------------|
D|----------------------------------------------------------------|
A|-7-7-7-7-7-7-7-5-5-5-5-5-5-5-4-4-4-4-4-4-4-4-5-5-5-5-5-5-5-5-5--|
E|----------------------------------------------------------------|
   Repetir el recuerdo que no fue el momento!!!!!!

Se repite!!!
1RA LIRA
e|--------------------------------------------------------|
B|--12121212-12----10101010-10---9999-9----10101010-10----|
G|--11111111-11-x2-9-9-9-9--9-x2-8888-8-x2-9-9-9-9--9-x2--| x2
D|--9-9-9-9--9-----7-7-7-7--7----6666-6----7-7-7-7--7-----|
A|--------------------------------------------------------|
E|--------------------------------------------------------|
2DA LIRA
e|--------------------------------------------------------|
B|--------------------------------------------------------|
G|--6666666666--4444444444--2222222222222--4444444444444--|x2 todo
D|--6666666666--4444444444--2222222222222--4444444444444--|
A|--4444444444--2222222222--0000000000000--2222222222222--|
E|--------------------------------------------------------|
  YO QUIERO!!!! Repetir el recuerdo, que no fue el momento
   y  ahora  todo  vuelve  a  ser  normaaaaaal

1RA LIRA
e|-----------------------------|
B|--1010101010-1010101010-10---|
G|--9-9-9-9-9--9-9-9-9-9--9----|
D|--7-7-7-7-7--7-7-7-7-7--7----|
A|-----------------------------|
E|-------------------------?---|
2DA LIRA
e|-----------------------------|
B|-----------------------------|
G|-66666--66666-6~-------------|
D|-xxxxx--xxxxx-x~-------------|
A|-44444--44444-4~-------------|
E|-----------------------------|
   MALDITO YO!!!

1RA LIRA
e|--7---------------7---------------7---------------7----|->
B|----5-4-5-4-5-4-5---5-4-5-4-5-4-5---5-4-5-4-5-4-5------|->
G|-------------------------?-----------------------------|->
D|-------------------------------------------------------|->
A|-------------------------------------------------------|->
E|-------------------------------------------------------|->

->|--7--5-4-5--4-2-4~-------------------------------------|
->|-------------------------------------------------------|
->|-------------------------?-----------------------------|
->|-------------------------------------------------------|
->|-------------------------------------------------------|
->|-------------------------------------------------------|
2DA LIRA
e|--------------------------------------------------------|
B|--------------------------------------------------------|
G|--6666666666--4444444444--2222222222222--4444444444444--|
D|--6666666666--4444444444--2222222222222--4444444444444--|
A|--4444444444--2222222222--0000000000000--2222222222222--|
E|--------------------------------------------------------|
    Para siempre............

1RA LIRA
e|--7---------------7---------------7---------------7----|->
B|----5-4-5-4-5-4-5---5-4-5-4-5-4-5---5-4-5-4-5-4-5------|->
G|-------------------------?-----------------------------|->
D|-------------------------------------------------------|->
A|-------------------------------------------------------|->
E|-------------------------------------------------------|->

->|--7--5-4-5--4------------------------------------------|
->|--------------5-4-5~-----------------------------------|
->|-------------------------?-----------------------------|
->|-------------------------------------------------------|
->|-------------------------------------------------------|
->|-------------------------------------------------------|
2DA LIRA
e|--------------------------------------------------------|
B|--------------------------------------------------------|
G|--6666666666--4444444444--2222222222222--4444444444444--|x2 todo
D|--6666666666--4444444444--2222222222222--4444444444444--|
A|--4444444444--2222222222--0000000000000--2222222222222--|
E|--------------------------------------------------------|
pm ...................
  Para siempre.....(para siempre)

1RA LIRA
e|-----------------------------------------------------------------|
B|-----5-----5---------5-----5---------7-----7---------7-----7-----|
G|---5---5-----5-----5---5-----5-?---7---7-----7-----7---7-----7---|
D|---------7-----7---------7-----7---------9-----9---------9-----9-|
A|-7---------------7---------------9---------------9---------------|
E|-----------------------------------------------------------------|
2DA LIRA
e|---------------------------------------------------------------------|
B|---------------------------------------------------------------------|
G|-------------------------?-------------------------------------------|
D|-7-7------------7-7------------9-9--------------9-9------------------|
A|-7-7------------7-7------------9-9--------------9-9------------------|
E|-5-5------------5-5------------7-7--------------7-7------------------|

1RA LIRA
e|-----------------------------------------------------------------|
B|-----5-----5---------5-----5---------7-----7---------7-----7-----|
G|---5---5-----5-----5---5-----5-?---7---7-----7-----7---7-----7---|
D|---------7-----7---------7-----7---------9-----9---------9-----9-|
A|-7---------------7---------------9---------------9---------------|
E|-----------------------------------------------------------------|
2DA LIRA
e|-----------------------------------------------------------------|
B|------10-101010101010101010101010-101010101010101010101010101010-|
G|----9----9-9-9-9-9-9-9-9-9-9-9-9--9?9-9-9-9-9-9-9-9-9-9-9-9-9-9--|
D|--7----------7----7----7---7-----7------7-----7-----7--7----7----|
A|-----------------------------------------------------------------|
E|-----------------------------------------------------------------|

1RA LIRA
e|-------------------------------------------------------|
B|-------------------------------------------------------|
G|-------------------------?-----------------------------|
D|-------------------------------------------------------|
A|-------------------------------------------------------|
E|-------------------------------------------------------|
2DA LIRA
e|---------------------|
B|---------------------|
G|---------------------|
D|--7-7-7-7--5---------|
A|--7-7-7-7--5---------|
E|--5-5-5-5--3---------|
PM ...........

1RA LIRA
e|-------------------------------------------------------------|
B|-----5-----5---------5-----5---------7-----7---------7-----7-|
G|---5---5-----5-----5---5-----5-?---7---7-----7-----7---7-----|
D|---------7-----7---------7-----7---------9-----9---------9---|
A|-7---------------7---------------9---------------9-----------|
E|-------------------------------------------------------------|
2DA LIRA
e|-----------------------------------------------------|
B|-1212121212XX----------------------------------------|
G|-1111111111XX--X6------?-----------------------------|
D|-9-9-9-9-9-XX----------------------------------------|
A|-----------------------------------------------------|
E|-----------------------------------------------------|

1RA LIRA
e|-------------------------------------------------------|
B|-------------------------------------------------------|
G|-------------------------?-----------------------------|
D|-------------------------------------------------------|
A|-------------------------------------------------------|
E|-------------------------------------------------------|
2DA LIRA
e|-------------------------------------------------------|
B|-------------------------------------------------------|
G|-------------------------?-----------------------------|
D|-7-7-7-7-7--5---------------------------------------------|
A|-7-7-7-7-7--5---------------------------------------------|
E|-5-5-5-5-5--3---------------------------------------------|
pm..............

Esta larguísima la canción pero sencilla
Ya después del primer coro casi todo se
repite pero con algunas variaciones.
Puse todo bien explicado para que no se
confundan... esta canción como que no se oye
muy bien en la acústica, asi que sáquenla en eléctrica.
Los bajos esos algunas partes las invente,
por q yo no soy experto en
bajo. debajo de cada tab esta la letra de la canción para
q no se pierdan y esta dividida en dos guitarras.
Va ahí ce ven!

            
            
Suggest correction
Creating personal tab
Creating personal tab
You can edit any tab online and save it as your Personal.

You can edit, replace or remove any tab part or add personal notes – all changes will be seen only by you.

Personal tabs can be accessed anytime from any device, even offline.
Learn more »
Give kudos to tab author, rate the tab!
1 2 3 4 5
comments
print report bad tab
guest
Wanna post a correction for this tab? Suggest correction