Oops, an error
Loading. Please wait.

Dos Horas tab

by Colchon
11 views 1 this week
no commentswrite comment
1 2 3 4 5
3 more votes to show rating
add to favorites
×
Save as Personal and add changes to this tab that will be seen only by you. Learn more ›
×
You can save this tab as Personal to edit and correct it or add notes. All changes will be seen only by you. Learn more »
launch autoscroll
font size
0
reset
how to read this tab
guitar tuner
edit
Autoscroll
slow
fast
+/-
esc
set tempo
stop
TUNING - ESTANDAR EBGDAE
WENO ESTA CANCION TAMBIEN ESTA MUY FACIL...
CUALKIER DUDA MI MSN ES simplemente_edu_777@


/////////////////
/INTRO          /
/////////////////
o:00

GUITARRA 1
E|------------------------------------------------|
B|------------------------------------------------|
G|------6-7-6------6-9-7-6---6-7-6-----6-9-7-6----|
D|---7--------7-7----------7-------7-7---------7--|
A|------------------------------------------------|
E|------------------------------------------------|

GUITARRA 2
E|------------------------------------------------|
B|------------------------------------------------|
G|-------------7~---------9~--------11~-----13-14-|
D|---7~--------7~---------9~--------11~-----13-14-|
A|---7~--------5~---------7~--------9~------11-12-|
E|---5~-------------------------------------------|


0:07
GUITARRA 1
E|-----------------------------------------------|
B|-----------------------------------------------|
G|-----------------------------------------------|
D|-----------------------------------------------|
A|------4-5-4-----4-7-5-4---4-5-4-----4-7-5-4-7--|
E|---5--------5-5---------5-------5-5------------|

GUITARRA 2
E|-----------------------------------------------|
B|-----------------------------------------------|
G|-----------------------------------------------|
D|--7-----------7---------7---------7------------|
A|--7-4-5/7-5-4-7-4-7-5-4-7-4-5-4---7-4-7-5-4-7--|
E|--5-----------5---------5-------5-5------------|

/////////////////////
/ESTROFA            /
/////////////////////
0:15
GUITARRA 1
E|------------------------------------------------------------|
B|------------------------------------------------------------|
G|--9-9999-7-7777---------------9-9999-7-7777-----------------|
D|--9-9999-7-7777-7-7777-9-9999-9-9999-7-7777-7-7777-9999999--|
A|--7-7777-5-5555-7-7777-9-9999-7-7777-5-5555-7-7777-9999999--|
E|----------------5-5555-7-7777---------------5-5555-7777777--|
      ....   ....   ....   ....   ....   ....   ....

GUITARRA 2
E|------------------------------------------------------------|
B|------------------------------------------------------------|
G|--9-9999-7-7777---------------9-9999-7-7777-----------------|
D|--9-9999-7-7777-7-7777-9-9999-9-9999-7-7777-7-7777-9999999--|
A|--7-7777-5-5555-7-7777-9-9999-7-7777-5-5555-7-7777-9999999--|
E|----------------5-5555-7-7777---------------5-5555-7777777--|
      ....   ....   ....   ....   ....   ....   ....


GUITARRA 1
E|-----------------------------------------|
B|-----------------------------------------|
G|---9999999--7777777----------------------|
D|---9999999--7777777--7777777--9999999----|X2
A|---7777777--5555555--7777777--9999999----|
E|---------------------5555555--7777777----|

GUITARRA 2
E|-----------------------------------------|
B|-----------------------------------------|
G|---9999999--7777777----------------------|
D|---9999999--7777777--7777777--9999999----|X2
A|---7777777--5555555--7777777--9999999----|
E|---------------------5555555--7777777----|


0:31
GUITARRA 1
E|-----------------------------------------------|
B|-----------------------------------------------|
G|-----------------------------------------------|
D|-----------------------------------------------|
A|------4-5-4-----4-7-5-4---4-5-4-----4-7-5-4-7--|
E|---5--------5-5---------5-------5-5------------|

GUITARRA 2
E|------------------------------------------------|
B|------------------------------------------------|
G|------------------------------------------------|
D|---7----------7----------7---------7------------|
A|---7--4-5-4---7--4-7-5-4-7-4-5-4---7-4-7-5-4-7--|
E|---5--------5-5----------5-------5-5------------|


/////////////////////
/ESTROFA            /
/////////////////////
0:38
GUITARRA 1
E|------------------------------------------------------------|
B|------------------------------------------------------------|
G|--9-9999-7-7777---------------9-9999-7-7777-----------------|
D|--9-9999-7-7777-7-7777-9-9999-9-9999-7-7777-7-7777-9999999--|
A|--7-7777-5-5555-7-7777-9-9999-7-7777-5-5555-7-7777-9999999--|
E|----------------5-5555-7-7777---------------5-5555-7777777--|
      ....   ....   ....   ....   ....   ....   ....

GUITARRA 2
E|-----------------------------------------------------------------|
B|-----------------------------------------------------------------|
G|--9-9999-7-7777---------------9-9999-7-7777----------------------|
D|--9-9999-7-7777-7-7777-9-9999-9-9999-7-7777-7-7777-99(pickslide)-|
A|--7-7777-5-5555-7-7777-9-9999-7-7777-5-5555-7-7777-99(pickslide)-|
E|----------------5-5555-7-7777---------------5-5555-77(pickslide)-|
      ....   ....   ....   ....   ....   ....   ....


///////////
/CORO     /
///////////
0:46
GUITARRA 1
E|--------------------------5555---------------------55555555555-|
B|---------------------------------------------------------------|
G|---------------------------------------------------------------|
D|---7777-9-7-6-7777-------------9-7-6-7777----------------------|
A|---7777-9-7-6-7777---7-54------9-7-6-7777-7-5-4----------------|
E|---5555-7-5-4-5555-------------7-5-4-5555--------7-------------|

GUITARRA 2
E|---------------------------------------------------------------|
B|---------------------------------------------------------------|
G|--------------------------------------------------------9-7-6--|
D|---7777-9-7-6-7777--------7777-9-7-6-7777----------7x----------|
A|---7777-9-7-6-7777---7-54-7777-9-7-6-7777--7-5-4---7x----------|
E|---5555-7-5-4-5555--------5555-7-5-4-5555--------7-5X----------|


0:56
GUITARRA 1
E|-----------------------------------------------|
B|-----------------------------------------------|
G|-----------------------------------------------|
D|-----------------------------------------------|
A|------4-5-4-----4-7-5-4---4-5-4-----4-7-5-4-7--|
E|---5--------5-5---------5-------5-5------------|

GUITARRA 2
E|-----------------------------------------------|
B|-----------------------------------------------|
G|-----------------------------------------------|
D|--7-----------7---------7---------7------------|
A|--7-4-5/7-5-4-7-4-7-5-4-7-4-5-4---7-4-7-5-4-7--|
E|--5-----------5---------5-------5-5------------|


/////////////////////
/ESTROFA            /
/////////////////////
1:04
GUITARRA 1
E|------------------------------------------------------------|
B|------------------------------------------------------------|
G|--9-9999-7-7777---------------9-9999-7-7777-----------------|
D|--9-9999-7-7777-7-7777-9-9999-9-9999-7-7777-7-7777-9999999--|
A|--7-7777-5-5555-7-7777-9-9999-7-7777-5-5555-7-7777-9999999--|
E|----------------5-5555-7-7777---------------5-5555-7777777--|
      ....   ....   ....   ....   ....   ....   ....

GUITARRA 2
E|------------------------------------------------------------|
B|------------------------------------------------------------|
G|--9-9999-7-7777---------------9-9999-7-7777-----------------|
D|--9-9999-7-7777-7-7777-9-9999-9-9999-7-7777-7-7777-9999999--|
A|--7-7777-5-5555-7-7777-9-9999-7-7777-5-5555-7-7777-9999999--|
E|----------------5-5555-7-7777---------------5-5555-7777777--|
      ....   ....   ....   ....   ....   ....   ....


GUITARRA 1
E|-----------------------------------------|
B|-----------------------------------------|
G|---9999999--7777777----------------------|
D|---9999999--7777777--7777777--9999999----|X2
A|---7777777--5555555--7777777--9999999----|
E|---------------------5555555--7777777----|

GUITARRA 2
E|-----------------------------------------|
B|-----------------------------------------|
G|---9999999--7777777----------------------|
D|---9999999--7777777--7777777--9999999----|X2
A|---7777777--5555555--7777777--9999999----|
E|---------------------5555555--7777777----|


///////////
/CORO     /
///////////
1:19
GUITARRA 1
E|--------------------------5555---------------------55555555555-|
B|---------------------------------------------------------------|
G|---------------------------------------------------------------|
D|---7777-9-7-6-7777-------------9-7-6-7777----------------------|
A|---7777-9-7-6-7777---7-54------9-7-6-7777-7-5-4----------------|
E|---5555-7-5-4-5555-------------7-5-4-5555--------7-------------|

GUITARRA 2
E|---------------------------------------------------------------|
B|---------------------------------------------------------------|
G|---------------------------------------------------------------|
D|---7777-9-7-6-7777--------7777-9-7-6-7777----------7x----------|
A|---7777-9-7-6-7777---7-54-7777-9-7-6-7777--7-5-4---7x----------|
E|---5555-7-5-4-5555--------5555-7-5-4-5555--------7-5X----------|


/////////////////////
/ESTROFA            /
/////////////////////
1:31
GUITARRA 1
E|------------------------------------------------------------|
B|------------------------------------------------------------|
G|--9-9999-7-7777---------------9-9999-7-7777-----------------|
D|--9-9999-7-7777-7-7777-9-9999-9-9999-7-7777-7-7777-9999999--|
A|--7-7777-5-5555-7-7777-9-9999-7-7777-5-5555-7-7777-9999999--|
E|----------------5-5555-7-7777---------------5-5555-7777777--|
      ....   ....   ....   ....   ....   ....   ....

GUITARRA 2
E|------------------------------------------------------------|
B|------------------------------------------------------------|
G|--9-9999-7-7777---------------9-9999-7-7777-----------------|
D|--9-9999-7-7777-7-7777-9-9999-9-9999-7-7777-7-7777-9999999--|
A|--7-7777-5-5555-7-7777-9-9999-7-7777-5-5555-7-7777-9999999--|
E|----------------5-5555-7-7777---------------5-5555-7777777--|
      ....   ....   ....   ....   ....   ....   ....


GUITARRA 1
E|-----------------------------------------|
B|-----------------------------------------|
G|---9999999--7777777----------------------|
D|---9999999--7777777--7777777--9999999----|X2
A|---7777777--5555555--7777777--9999999----|
E|---------------------5555555--7777777----|

GUITARRA 2
E|-----------------------------------------|
B|-----------------------------------------|
G|---9999999--7777777----------------------|
D|---9999999--7777777--7777777--9999999----|X2
A|---7777777--5555555--7777777--9999999----|
E|---------------------5555555--7777777----|


///////////
/CORO     /
///////////
1:47
GUITARRA 1
E|-------------------------------------------------------|
B|-------------------------------------------------------|
G|-------------------------------------------------------|
D|---7------6-7777-------7777-9-7-6-7777----------7-7X---|
A|---7------6-7777--7-54-7777-9-7-6-7777--7-5-4---7-7X---|
E|---5------4-5555-------5555-7-5-4-5777--------7-5-5X---|

GUITARRA 2
E|-------------------------------------------------------|
B|-------------------------------------------------------|
G|-------------------------------------------------------|
D|---7------6-7777-------7777-9-7-6-7777----------7-7X---|
A|---7------6-7777--7-54-7777-9-7-6-7777--7-5-4---7-7X---|
E|---5------4-5777-------5555-7-5-4-5555--------7-5-5X---|


/////////////////////
/INTERLUDE          /
/////////////////////
1:56
GUITARRA 1
E|------------------|
B|------------------|
G|------------------|
D|------------------|
A|-----7-5-4--------|
E|------------------|

GUITARRA 2
E|------------------|
B|------------------|
G|------------------|
D|------------------|
A|------------------|
E|------------------|


1:57

GUITARRA 1              -|
E|---------------------| |
B|---------------------| |
G|---------------------| |
D|---77--7-44--2-4-----| |
A|---77--7-44--2-4-----| |
E|---55--5-22--0-2-----| |
                         |x2
GUITARRA 2               |
E|---------------------| |
B|---------------------| |
G|---------------------| |
D|---77--7-44--2-4-----| |
A|---77--7-44--2-4-----| |
E|---55--5-22--0-2-----| |
                        -|


2:04
GUITARRA 1              -|
E|---------------------| |
B|---------------------| |
G|---------------------| |
D|--777774444422222----| |
A|---------------------| |
E|---------------------| |
                         |x2
GUITARRA 2               |
E|---------------------| |
B|---------------------| |
G|---------------------| |
D|---77--7-44--2-4-----| |
A|---77--7-44--2-4-----| |
E|---55--5-22--0-2-----| |
                        -|


///////////
/CORO     /
///////////
2:12
GUITARRA 1
E|----------------------------------------------------|
B|----------------------------------------------------|
G|----------------------------------------------------|
D|---7777-9-7-6-7777--------7777-9-7-6-7777-----------|
A|---7777-9-7-6-7777---7-54-7777-9-7-6-7777-7-5-4-----|
E|---5555-7-5-4-5555--------5555-7-5-4-5555--------7--|

GUITARRA 2
E|----------------------------------------------------|
B|----------------------------------------------------|
G|----------------------------------------------------|
D|---7777-9-7-6-7777--------7777-9-7-6-7777-----------|
A|---7777-9-7-6-7777---7-54-7777-9-7-6-7777--7-5-4----|
E|---5555-7-5-4-5555--------5555-7-5-4-5555--------7--|


PARTE FINAL

2:19

GUITARRA 1              -|
E|---------------------| |
B|---------------------| |
G|---------------------| |
D|---77--7-44--2-4-----| |
A|---77--7-44--2-4-----| |
E|---55--5-22--0-2-----| |
                         |x2
GUITARRA 2               |
E|---------------------| |
B|---------------------| |
G|---------------------| |
D|---77--7-44--2-4-----| |
A|---77--7-44--2-4-----| |
E|---55--5-22--0-2-----| |
                        -|


2:27
GUITARRA 1
E|---------------------|
B|---------------------|
G|---------------------|
D|---777774444422222---|
A|---------------------|
E|---------------------|


GUITARRA 2
E|---------------------|
B|---------------------|
G|---------------------|
D|---77--7-44--2-4-----|
A|---77--7-44--2-4-----|
E|---55--5-22--0-2-----|


2:31
GUITARRA 1
E|---------------------------|
B|---------------------------|
G|---------------------------|
D|--777999111111-12-11-9-77--|
A|-----------------------77--|
E|-----------------------55--|


GUITARRA 2
E|------------------------|
B|------------------------|
G|------------------------|
D|---77--7-44--2-4----77--|
A|---77--7-44--2-4----77--|
E|---55--5-22--0-2----55--|


FIN.....

            
            
Suggest correction
Creating personal tab
Creating personal tab
You can edit any tab online and save it as your Personal.

You can edit, replace or remove any tab part or add personal notes – all changes will be seen only by you.

Personal tabs can be accessed anytime from any device, even offline.
Learn more »
Give kudos to tab author, rate the tab!
1 2 3 4 5
comments
print report bad tab
guest
Wanna post a correction for this tab? Suggest correction