Oops, an error
Loading. Please wait.

La Ciudad tab

by Colchon
23 views 3 this week
no commentswrite comment
1 2 3 4 5
3 more votes to show rating
add to favorites
×
Save as Personal and add changes to this tab that will be seen only by you. Learn more ›
×
You can save this tab as Personal to edit and correct it or add notes. All changes will be seen only by you. Learn more »
launch autoscroll
font size
0
reset
how to read this tab
guitar tuner
edit
Autoscroll
slow
fast
+/-
esc
set tempo
stop
afinacion estandar eBGDAE

simplemente_edu_777@


INTRO
0:00 min

e|--------------------------------------|
B|--------------------------------------|
G|-------------------6---6---6---6------|
D|---9---9---9---9----------------------|
A|-----7---7---7---7---7---7---7---7----|
E|--------------------------------------|

e|--------------------------------------|
B|--------------------------------------|
G|--------------------------------------|
D|---7---7---7---7---6---6---7---6------|
A|-----7---7---7---7---7---7---7---7----|
E|--------------------------------------|

e|--------------------------------------|
B|--------------------------------------|
G|-------------------6---6---6---6------|
D|---9---9---9---9----------------------|
A|-----7---7---7---7---7---7---7---7----|
E|--------------------------------------|

e|--------------------------------------|
B|--------------------------------------|
G|--------------------------------------|
D|---7---7---7---7---6-------7---6------|
A|-----7---7---7---7---7-------7--------|
E|--------------------------------------|


0:21 min

e|--------------------------------------|
B|--9---9---9---9---10---10---10---10---|
G|----9---9---9---9----9----9----9----9-|
D|--------------------------------------|
A|--------------------------------------|
E|--------------------------------------|

e|--------------------------------------|
B|---7---7---7---7---12--12----9--10----|
G|-----9---9---9---9--------------------|
D|--------------------------------------|
A|--------------------------------------|
E|--------------------------------------|

e|-------------------------------------------|
B|---9--9--9--9--9-9--10--10--10--10--10-10--|
G|-------------------------------------------|
D|-------------------------------------------|
A|-------------------------------------------|
E|-------------------------------------------|

e|--------------------------------------|
B|---7--7--9--10--9-10-12-12--9-10-9~---|
G|--------------------------------------|
D|--------------------------------------|
A|--------------------------------------|
E|--------------------------------------|


VERSO
0:41 min

e|---------------------------------------|
B|---------------------------------------|
G|---------------------------------------|
D|--------------------------------66-77--|
A|-777777777----------------------66-77--|
E|-----------777777777-999999999--44-55--|
    ........ ......... .........

e|---------------------------------------|
B|---------------------------------------|
G|--99999999-----------------------------|
D|--99999999-999999999-1111111111-66-77--|
A|--77777777-999999999-1111111111-66-77--|
E|-----------777777777-9-9-9-9-9--44-55--|


1:01 min

e|-----------------------------------------------|
B|--9-9-9-9--10-10-10-10--7-7-9-10--12-12--9-10--|
G|-----------------------------------------------|
D|-----------------------------------------------|
A|-----------------------------------------------|
E|-----------------------------------------------|

e|---------------------------------------|
B|--9--9--9--9--9-9--10--9--10--9--10-9--|
G|---------------------------------------|
D|---------------------------------------|
A|---------------------------------------|
E|---------------------------------------|

e|--------------------------------------|
B|---7--7--9--10--9-10-12-12--9-10-9~---|
G|--------------------------------------|
D|--------------------------------------|
A|--------------------------------------|
E|--------------------------------------|


yo ya no pueeeedo......

e|----------------------------------------|
B|----------------------------------------|
G|--9---9---9----9------9------9---9---9--|
D|----9---9----9---9--9---9--9---9---9----|
A|----------------------------------------|
E|----------------------------------------|


1:42 min

e|------------------|
B|------------------|
G|---999999999999---|
D|---999999999999---|
A|---777777777777---|
E|------------------|
     ......

dime en...
e|----------------------------------|
B|----------------------------------|
G|---9--9--9-9--9--9--9-9--9-9-9----|
D|---9--9--9-9--9--9--9-9--9-9-9----|
A|---7--7--7-7--7--7--7-7--7-7-7----|
E|----------------------------------|
     .  .  .    .  .  .    . .

quien...
e|---------------------------------------|
B|---------------------------------------|
G|---9--9--9-9--9--9--9-9-9-9-9-9--9-----|
D|---9--9--9-9---------------------------|
A|---6--6--6-6---------------------------|
E|---------------------------------------|
     .  .  .

confiar...
e|---------------------------------|
B|---------------------------------|
G|---------------------------------|
D|---9--9--9-9--9--9--9-9--9-9-9---|
A|---9--9--9-9--9--9--9-9--9-9-9---|
E|---7--7--7-7--7--7--7-7--7-7-7---|
     .  .  .    .  .  .    . .

contra la soledad....
e|-------------------------------------|
B|-------------------------------------|
G|------------------1111111113131313---|
D|---11--11--11-11--x-x-x-x-x-x-x-x----|
A|---11--11--11-11--9-9-9-9-11111111---|
E|---9---9---9--9----------------------|
     .   .   .

con...
e|----------------------------------|
B|----------------------------------|
G|---9--9--9-9--9--9--9-9--9-9-9----|
D|---9--9--9-9--9--9--9-9--9-9-9----|
A|---7--7--7-7--7--7--7-7--7-7-7----|
E|----------------------------------|
     .  .  .    .  .  .    . .

quien...
e|----------------------------------|
B|----------------------------------|
G|---9--9--9-9--9--9--9-9--9-9-9----|
D|---9--9--9-9--9--9--9-9--9-9-9----|
A|---6--6--6-6--6--6--6-6--6-6-6----|
E|----------------------------------|
     .  .  .    .  .  .    . . .

platicar...
e|------------------------------------|
B|------------------------------------|
G|--------------9--9--9-9-9-9-9-9--9--|
D|---9--9--9-9------------------------|
A|---9--9--9-9------------------------|
E|---7--7--7-7------------------------|
     .  .  .

e|-------------------------------------|
B|-------------------------------------|
G|------------------1111111113131313---|
D|---11--11--11-11--x-x-x-x-x-x-x-x----|
A|---11--11--11-11--9-9-9-9-11111111---|
E|---9---9---9--9----------------------|
     .   .   .


caminando por las calles....
e|------------------------------------------------|
B|------------------------------------------------|
G|---9~-------------------------------------------|
D|---9~-------------------------6-6--6-7-7--7-7---|
A|---7~----------6-7-9-7-6-7-6--6-6--6-7-7--7-7---|
E|------------------------------4-4--4-5-5--5-5---|

ya se olvido...
e|---------------------------------------|
B|---------------------------------------|
G|--99999999-----------------------------|
D|--99999999-999999999-1111111111-66-77--|
A|--77777777-999999999-1111111111-66-77--|
E|-----------777777777-9-9-9-9-9--44-55--|


SOLO
2:24 min

e|--------------------------------------------|
B|--------------------------------------------|
G|---------------------------8h9-8-----8h9-8--|
D|---6---6-6h7-6---6-7-9---9-------9----------|
A|--------------------------------------------|
E|--------------------------------------------|


e|----------------------------|
B|----------------------------|
G|--11-9-8-9-8----------------|
D|-------------9-7-6-7-6------|
A|-----------------------7-6--|
E|----------------------------|


e|----------------------------------------------------------------|
B|-----------7-7h9-7---7------------------------------------------|
G|-------8-9---------9---9-8-9-8-------------------8-9-9/11-9-8~--|
D|---7-9-------------------------9-7-6-7-6-----7-9----------------|
A|-7---------------------------------------7-6--------------------|
E|----------------------------------------------------------------|


e|---------------------------------------------------|
B|---------------------------------------------------|
G|-9----9----9----9----11----9----11----9----11------|
D|---99---99---99---99----99---99----99---99----11---|
A|---------------------------------------------------|
E|---------------------------------------------------|
   . .. . .. . .. . .. .  .. . .. .  .. . .. .  .

e|--------------------------------------------------------|
B|--------------------------------------------------------|
G|--11----9----11----11----9----11---11--9--8-------------|
D|-----99---99----99----99---99----------------9--7--6~---|
A|--------------------------------------------------------|
E|--------------------------------------------------------|
    .  .. . .. .  .. .  .. . .. .


2:53 min
pueedooo cambiar....

e|----------------------------------------|
B|----------------------------------------|
G|--9---9---9----9------9------9---9---9--|
D|----9---9----9---9--9---9--9---9---9----|
A|----------------------------------------|
E|----------------------------------------|


3:12 min
                                              --/
e|-----------------------------|                /
B|-----------------------------|                /
G|---9--9--9-9--9-9--9-9-9-----|                /
D|---9--9--9-9--9-9--9-9-9-----|                /
A|---7--7--7-7--7-7--7-7-7-----|                /
E|-----------------------------|                /
     .  .  .    .    . .                        /
                                                /
e|---------------------------------------|      /
B|---------------------------------------|      /
G|---9--9--9-9--9--9--9-9-9-9-9-9--9-----|      /
D|---9--9--9-9---------------------------|      /
A|---6--6--6-6---------------------------|      /
E|---------------------------------------|      /
     .  .  .                                    /
                                                /
e|---------------------------|                  /X2
B|---------------------------|                  /
G|---------------------------|                  /
D|---9--9--9-9--9-9--9-9-9---|                  /
A|---9--9--9-9--9-9--9-9-9---|                  /
E|---7--7--7-7--7-7--7-7-7---|                  /
     .  .  .    .    . .                        /
                                                /
e|-------------------------------------|        /
B|-------------------------------------|        /
G|------------------1111111113131313---|        /
D|---11--11--11-11--x-x-x-x-x-x-x-x----|        /
A|---11--11--11-11--9-9-9-9-11111111---|        /
E|---9---9---9--9----------------------|        /
     .   .   .                                  /
                                              --/

3:31 min
ya se olvido de lo que fue ahhhhhh....
e|-----------------------------------------------|
B|-----------------------------------------------|
G|---9~----9~---------------------111111-131313--|
D|---9~----9~-----9~-----11~------x-x-x--x-x-x---|
A|---7~----6~-----9~-----11~------9-9-9--111111--|
E|----------------7~-----9~----------------------|


3:41 min
ya se olvido de lo que fue algunos años atras.
e|---------------------------------------|
B|---------------------------------------|
G|--9999-1111-1313-9999--------------9~--|
D|--9999-x-x--x-x--9999-9999-111111--9~--|
A|--7777-9-9--1111-6666-9999-111111--7~--|
E|----------------------7777-9-9-9-------|


~FIN~

            
            
Suggest correction
Creating personal tab
Creating personal tab
You can edit any tab online and save it as your Personal.

You can edit, replace or remove any tab part or add personal notes – all changes will be seen only by you.

Personal tabs can be accessed anytime from any device, even offline.
Learn more »
Give kudos to tab author, rate the tab!
1 2 3 4 5
comments
print report bad tab
guest
Wanna post a correction for this tab? Suggest correction