Oops, an error
Loading. Please wait.

No Te Quise Tanto tab

by Colchon
42 views 1 this week
no commentswrite comment
1 2 3 4 5
3 more votes to show rating
add to favorites
×
Save as Personal and add changes to this tab that will be seen only by you. Learn more ›
×
You can save this tab as Personal to edit and correct it or add notes. All changes will be seen only by you. Learn more »
launch autoscroll
font size
0
reset
how to read this tab
guitar tuner
edit
Autoscroll
slow
fast
+/-
esc
set tempo
stop
TUNING - ESTANDAR EBGDAE

///////////////////////////
/                         /
/ p  - pulloff            /
/ h  - hammer-on          /
/ ~  - vibrato            /
/ .  - paml mute          /
/ /  - slide              /
/                         /
///////////////////////////

CUALKIER DUDA MI CORREO ES
simplemente_edu_777@  suerte!


INTRO
0:00
GUITARRA 1
E|----------------------------------------|
B|----------------------------------------|
G|----------------------------------------|
D|---7-7------4-4-----7-7----(pickslide)--|
A|---7-7------4-4-----7-7----(pickslide)--|
E|---5-5------2-2-----5-5----(pickslide)--|

GUITARRA 2
E|----------------------------------------|
B|----------------------------------------|
G|----------------------------------------|
D|---7-7------4-4-----7-7----444-4444-----|
A|---7-7------4-4-----7-7----444-4444-----|
E|---5-5------2-2-----5-5----222-2222-----|
                             ...

0:05
GUITARRA 1 Y GUITARRA 2
E|--------------------------------------|
B|--------------------------------------|
G|--------------------------------------|
D|------------2-------------------------|X3
A|--0-0-0-4-5----------5-4-2-4----------|
E|---------------2-2-2------------------|

GUITARRA 1 Y GUITARRA 2
E|--------------------------------------|
B|--------------------------------------|
G|--------------------------------------|
D|------------2---4-4---4-4-------------|
A|--0-0-0-4-5-----4-4---4-4-------------|
E|----------------2-2---2-2-------------|


ESTROFA
0:16
GUITARRA 1 Y GUITARRA 2
E|--------------------------------------|
B|--------------------------------------|
G|--------------------------777-999-----|
D|--777-7---444-4---222-2---777-999-----|x2
A|--777-7---444-4---222-2---555-777-----|
E|--555-5---222-2---000-0---------------|
    ...     ...     ...


0:27
GUITARRA 1
E|--------------------------------------|
B|--------------------------------------|
G|----7-6------6-7-9----7-6----7-7-9----|
D|--------7-----------------7-----------|
A|--------------------------------------|
E|--------------------------------------|

GUITARRA 2
E|--------------------------------------|
B|--------------------------------------|
G|--------------------------------------|
D|--77-------99-------77------999-999---|
A|--77-------99-------77------999-999---|
E|--55-------77-------55------777-777---|
                              ...


CORO
0:32
GUITARRA 1                               -|
E|--------------------------------------| |
B|--------------------------------------| |
G|--------------------------------------| |
D|--77777777-44444444-99999999-222------| |
A|--77777777-44444444-99999999-222-4-5-4| |
E|--55555555-22222222-77777777-000------| |
                                          |x2
GUITARRA2                                 |
E|--------------------------------------| |
B|--------------------------------------| |
G|--------------------------------------| |
D|--77777777-44444444-99999999-22222222-| |
A|--77777777-44444444-99999999-22222222-| |
E|--55555555-22222222-77777777-00000000-| |
                                         -|


0:42
GUITARRA 1
E|--------------------------------------|
B|--------------------------------------|
G|--------------------------------------|
D|------------2-------------------------|X2
A|--0-0-0-4-5----------5-4-2-4----------|
E|---------------2-2-2------------------|

GUITARRA 2
E|----------------------------|
B|----------------------------|
G|----------------------------|
D|---7-7-7-7-777-4-4-4-4-444--|x2
A|---7-7-7-7-777-4-4-4-4-444--|
E|---5-5-5-5-555-2-2-2-2-222--|
     . . . . ... . . . . ...


ESTROFA
0:47
GUITARRA 1 Y GUITARRA 2
E|-------------------------------------------|
B|-------------------------------------------|
G|----------------------------------777-999--|
D|-7-7-7-7777-4-4-4-4444-2-2-2-2222-777-999--|x2
A|-7-7-7-7777-4-4-4-4444-2-2-2-2222-555-777--|
E|-5-5-5-5555-2-2-2-2222-0-0-0-0000----------|
   . . . .... . . . .... . . . ....


0:58
GUITARRA 1
E|--------------------------------------|
B|--------------------------------------|
G|----7-6------6-7-9----7-6----7-7-9----|
D|--------7-----------------7-----------|
A|--------------------------------------|
E|--------------------------------------|

GUITARRA 2
E|--------------------------------------|
B|--------------------------------------|
G|--------------------------------------|
D|--77-------99-------77------999-999---|
A|--77-------99-------77------999-999---|
E|--55-------77-------55------777-777---|
                              ...


CORO
1:03
GUITARRA 1                               -|
E|--------------------------------------| |
B|--------------------------------------| |
G|--------------------------------------| |
D|--77777777-44444444-99999999-222------| |
A|--77777777-44444444-99999999-222-4-5-4| |
E|--55555555-22222222-77777777-000------| |
                                          |x3
GUITARRA2                                 |
E|--------------------------------------| |
B|--------------------------------------| |
G|--------------------------------------| |
D|--77777777-44444444-99999999-22222222-| |
A|--77777777-44444444-99999999-22222222-| |
E|--55555555-22222222-77777777-00000000-| |
                                         -|


GUITARRA 1
E|-------------------------------------------|
B|-------------------------------------------|
G|-------------------------------------------|
D|--77777777-44444444-99999999-222--------7~-|
A|--77777777-44444444-99999999-222-4-5-4--7~-|
E|--55555555-22222222-77777777-000--------5~-|

GUITARRA2
E|-------------------------------------------|
B|-------------------------------------------|
G|-------------------------------------------|
D|--77777777-44444444-99999999-222--------7~-|
A|--77777777-44444444-99999999-222--------7~-|
E|--55555555-22222222-77777777-000--------5~-|


INTERLUDE
1:31
GUITARRA 1
E|--------------------------------------|
B|--------------------------------------|
G|---7---6-----7--------7---6-------9---|
D|-----------------7--------------------|
A|--------------------------------------|
E|--------------------------------------|

GUITARRA 2
E|------------------------------------------------------------------|
B|------------------------------------------------------------------|
G|------------------------------------------------------------------|
D|----------------------4-----4---4-----7-----7---7-----9-----9---9-|
A|------7-----7---7-2-2---2-2---2---5-5---5-5---5---7-7---7-7---7---|
E|--5-5---5-5---5---------------------------------------------------|
    . . . . . . . . . . . . . . . . . . . . . . . . . . . . . . . .


1:38
GUITARRA 1                                                    -|
E|-----------------------------------------|                   |
B|-----------------------------------------|                   |
G|---7---6-666-7---------7---6-666--9-999--|                   |
D|-----------------7-777-------------------|                   |
A|-----------------------------------------|                   |
E|-----------------------------------------|                   |
                                                               |x2
GUITARRA 2                                                     |
E|-----------------------------------------------------------| |
B|-----------------------------------------------------------| |
G|----------------44-4-44-4-4-4-77-7-77-7-7-7-99-9-99-9-9-9--| |
D|--77-7-77-7-7-7-44-4-44-4-4-4-77-7-77-7-7-7-99-9-99-9-9-9--| |
A|--77-7-77-7-7-7-22-2-22-2-2-2-55-5-55-5-5-5-77-7-77-7-7-7--| |
E|--55-5-55-5-5-5--------------------------------------------| |
    ..   ..   .   ..   ..   .   ..   ..   .   ..   ..   .      |
                                                              -|


GUITARRA 1
1:51
  ///////x3/////////
E|------------------|----------------------------------------|
B|------------------|----------------------------------------|
G|--6-7-6-----------|--6-9-7-6-7--------7p6h7p6h7p6h7p6h7-9--|
D|--------7-6-7-6-7-|------------7---------------------------|
A|------------------|----------------------------------------|
E|------------------|----------------------------------------|

GUITARRA 2
E|--------------------------------------|
B|--------------------------------------|
G|--------444444-77777-999999-----------|
D|--77777-444444-77777-999999---7~------|
A|--77777-222222-55555-777777---7~------|
E|--55555-----------------------5~------|


CORO
2:02
GUITARRA 1
E|--------------------------------------|
B|--------------------------------------|
G|--------------------------------------|
D|--77777777-44444444-99999999-222------|
A|--77777777-44444444-99999999-222-4-5-4|
E|--55555555-22222222-77777777-000------|

GUITARRA2
E|--------------------------------------|
B|--------------------------------------|
G|--------------------------------------|
D|--77777777-44444444-99999999-22222222-|
A|--77777777-44444444-99999999-22222222-|
E|--55555555-22222222-77777777-00000000-|


GUITARRA 1
E|----------------------------------------|
B|----------------------------------------|
G|----------------------------------------|
D|--77777777-44444444-99999999-222--------|
A|--77777777-44444444-99999999-222-4-5-4--|
E|--55555555-22222222-77777777-000--------|

GUITARRA2
E|----------------------------------------|
B|----------------------------------------|
G|----------------------------------------|
D|--77777777-44444444-99999999-22222222---|
A|--77777777-44444444-99999999-22222222---|
E|--55555555-22222222-77777777-00000000---|


2:15
GUITARRA 1
E|----------------------------------------------------|
B|----------------------------------------------------|
G|----7-6------6-7-9----7-6-------9-7-6---------------|
D|--------7-----------------7-----------7/97~-----7--|
A|-------------------------------------------------7--|
E|-------------------------------------------------5--|

GUITARRA 2
E|----------------------------------------------------|
B|----------------------------------------------------|
G|--------------------------------9-7-6---------------|
D|--77-------99-------77------999-------7/97~-----7--|
A|--77-------99-------77------999------------------7--|
E|--55-------77-------55------777------------------5--|
                              ...


FIN...

            
            
Suggest correction
Creating personal tab
Creating personal tab
You can edit any tab online and save it as your Personal.

You can edit, replace or remove any tab part or add personal notes – all changes will be seen only by you.

Personal tabs can be accessed anytime from any device, even offline.
Learn more »
Give kudos to tab author, rate the tab!
1 2 3 4 5
comments
print report bad tab
guest
Wanna post a correction for this tab? Suggest correction