Oops, an error
Loading. Please wait.

Nunca Es Para Siempre tab

by Colchon
25 views 1 this week
no commentswrite comment
1 2 3 4 5
3 more votes to show rating
add to favorites
×
Save as Personal and add changes to this tab that will be seen only by you. Learn more ›
×
You can save this tab as Personal to edit and correct it or add notes. All changes will be seen only by you. Learn more »
launch autoscroll
font size
0
reset
how to read this tab
guitar tuner
edit
Autoscroll
slow
fast
+/-
esc
set tempo
stop
Que onda gente pues verán por falta de time solo pude sacar el intro
y el solito de al final espero les agrade.

La primera parte va así como con pianito yo saque esto...

e16---------
B--16-16-17-
G-----------
D-----------   x4  (esto va acompañado por el bajo)
A-----------
E-----------

Después entra la guitarra haciendo esto (00:21)

e---------------------------------
B----------------------------------
G---------6-8h9-8-8h9-8------------
D-11-9-7-9--------9-----9-7h6-6h7-6
A---------------------------7------
E----------------------------------

Luego sigue unos acordillos (00:32)

e------------------- *primera guitarra*
B-------------------
G-9-------8--------- el paréntesis es el numero de rasgueos
D-9?(x16)-9-(x16)--- aproximados según yo
A-7-------6---------
E-------------------

Mientras la *primera guitarra*
Guitarra hace esos acordes entra una segunda
Guitarra haciendo esto (00:45)

e------------------- *segunda guitarra*
B-------------------
G-13/11/14/8--------   (estas son solo las pisadas cada una
D--x/-x/-x/x--------(x2) dura diferente tiempo solo
A-11/-9/12/6--------    escuchuelos bien no esta difícil)
E-------------------

Aquí entra lo que es como la segunda parte del intro (00:58)

e------------------- *primera guitarra*
B-------------------
G-9/11/14/13--------     igual solo son pisadas
D-9/11/14/13--------(x2) midan el tiempo de cada
A-7/-9/12/11--------     una*
E-------------------

e------------------- *segunda guitarra*
B-------------------
G-9/13/9/11/14/13--- lo mismo solo pisadas
D-x/-x/x/-x/-x/-x---(x2)
A-7/11/7/-9/12/11---
E-------------------
Solo

e----------------------------------------------------------
B----------------------------------------------------------
G-9h8p0-9h8p0-9h8p0-9h8p0-9-9-9h11-11-11/13-13-13-13/14-13-
D----------------------------------------------------------

e----------------------------------------------------------
B---------------------------------------------999-10-9-----
G-11-9-8-9-888-999-11-11-11-999-888-9-11-11-11---------11-9
D----------------------------------------------------------

e---------------------------------------------------------
B---------------------------------------------------------
G-9h11p9-8-9-9h11p9-8-9-8?(9-8-9-11-9-8-9-8)x3------------
D---------------------------------------------------------

e---------------------------------------------------------
B---------------------------------------------------------
G-9-8-9-8-9-8-9-8-11-9-8-9-11/13-11-9-8-9-11-9-11-9-8-9---
D---------------------------------------------------------

e---------------------------------------------------------
B--------9-10~-10-9---------------------------------------
G-9-9-11-----------11---9~--------------------------------
D---------------------------------------------------------

como verán anda muy fácil espero les agarade

            
            
Suggest correction
Creating personal tab
Creating personal tab
You can edit any tab online and save it as your Personal.

You can edit, replace or remove any tab part or add personal notes – all changes will be seen only by you.

Personal tabs can be accessed anytime from any device, even offline.
Learn more »
Give kudos to tab author, rate the tab!
1 2 3 4 5
comments
print report bad tab
guest
Wanna post a correction for this tab? Suggest correction