Oops, an error
Loading. Please wait.

Tal Vez En Otra Vida tab

version 1
version 1

Whole song

by Colchon
32 views 1 this week
no commentswrite comment
1 2 3 4 5
3 more votes to show rating
add to favorites
×
Save as Personal and add changes to this tab that will be seen only by you. Learn more ›
×
You can save this tab as Personal to edit and correct it or add notes. All changes will be seen only by you. Learn more »
launch autoscroll
font size
0
reset
how to read this tab
guitar tuner
edit
Autoscroll
slow
fast
+/-
esc
set tempo
stop
Esta rola se me hace demasiado xingona para que no este
entre los punteros de colchón, esta rola va dedicada con
mucho kariño para una nena ke aunke este un poko lejitos la
kiero muchísimo eia se iama ?Selene? mi amourzito xD <3
spro i les lata este rock si nu poez ni pecs.

Simbologia:   (#x)=pm en traste indicado, (x#)veces que se
repite,    p= pull off, (x)no se toca esa cuerda

INTRO:
Guitarra 1
E----------------------------|
A----------------------------|
D-------------------0--------|
G-2--4--2-4-2-1-4-1----------|
B---------------------2p3--2-|
E ---------------------------|

Guitarra 1
Aauuun         siigooooo

E---------------------------------------------------------|
A---------------------------------------------------------|
D-------------------0------------------------------0------|
G-2--4--2-4-2-1-4-1----------2-4-2-4--2-4-2-1-4-1---------|
B---------------------2p3--2------------------------2p3?2-|
E --------------------------------------------------------|

Guitarra 1
Lo ke no debía pasar, noo debía paa
E-----------------------|
A-----------------------|
D-----------0-0-0-------|
G-2-4-(x10)-------1-1-1-|
B-----------------------|
E ----------------------|

Guitarra 1
Saaaaaaaaaaar

E-5-5-5-5-x-x-x-x-x-x-x-x-x-x-x-x-x-x-7-|
A-7-7-7-7-4-4-4-4-5-5-5-5-4-4-4-4-5-4-9-|
D-7-7-7-7-6-6-6-6-7-7-7-7-6-6-6-6-7-6-9-|
G---------6-6-6-6-7-7-7-7-6-6-6-6-7-6---|(x2)
B---------------------------------------|
E --------------------------------------|


E-5x-5x-5x-5-x-x-x-x-x--x--x--x--x-x-x-x-7-|
A-7x-7x-7x-7-4-4-4-4-4x-4x-4x-4x-5-4-5-4-9-|
D-7x-7x-7x-7-6-6-6-6-6x-6x-6x-6x-7-6-7-6-9-|
G------------6-6-6-6-6x-6x-6x-6x-7-6-7-6---|
B------------------------------------------|
E------------------------------------------|

E-5-5-5-5-x-x-x-x-x-x-x-x-x-x-x-x-x-x-7-|
A-7-7-7-7-4-4-4-4-5-5-5-5-4-4-4-4-5-4-9-|
D-7-7-7-7-6-6-6-6-7-7-7-7-6-6-6-6-7-6-9-|
G---------6-6-6-6-7-7-7-7-6-6-6-6-7-6---|
B---------------------------------------|
E --------------------------------------|


Guitarra 1
Desearíaaaaaaaaaaa, poder sabeeeer
E-5-5-5-5--5-5-5-5--4-4-4-4--2-2-2-2-|
A-7-7-7-7--7-7-7-7--6-6-6-6--4-4-4-4-|
D-7-7-7-7--7-7-7-7--6-6-6-6--4-4-4-4-|
G------------------------------------|(x2)
B------------------------------------|
E -----------------------------------|
       Poooooor queeee buscando olvidarteeeee
E-5-5-5x-5x--5-5-5x-5x--4-4-4x-4x--2-2-2-2-|
A-7-7-7x-7x--7-7-7x-7x--6-6-6x-6x--4-4-4-4-|
D-7-7-7x-7x--7-7-7x-7x--6-6-6x-6x--4-4-4-4-|
G------------------------------------------|
B------------------------------------------|
E -----------------------------------------|
Solo encontré                     que te keria masssssss
E-5-5-5x-5x--5-5-5x-5x--4-4-4x-4x-----------------------|
A-7-7-7x-7x--7-7-7x-7x--6-6-6x-6x-----------------------|
D-7-7-7x-7x--7-7-7x-7x--6-6-6x-6x-----------7-----------|
G---------------------------------7-6p7-6p7---6p7-6p7-6-|
B-------------------------------------------------------|
E ------------------------------------------------------|
Koro:

Quiiizaaaaz noooo eees la vida correctaaa
E-5-5-5-5-x-x-x-x-x-x-x-x-x-x-7-7-|
A-7-7-7-7-4-4-4-4-5-5-5-5-4-4-9-9-|
D-7-7-7-7-6-6-6-6-7-7-7-7-6-6-9-9-|
G---------6-6-6-6-7-7-7-7-6-6-----|(x3)
B---------------------------------|
E --------------------------------|


E-5-5-5-5-x-x-x-x-x-x-x-x-x-x-x-x-x-x-7-|
A-7-7-7-7-4-4-4-4-5-5-5-5-4-4-4-4-5-4-9-|
D-7-7-7-7-6-6-6-6-7-7-7-7-6-6-6-6-7-6-9-|
G---------6-6-6-6-7-7-7-7-6-6-6-6-7-6---|(x1)
B---------------------------------------|
E---------------------------------------|

Entra bajo
Después sigue esto es un tipo riff pero lento


Guitarra 1
Te kiero veerr ( te kiero ver)
E-----------------------------------------|
A-----------------------------------------|
D-----------------------------------------|
G-----------------------------------------|(x4)
B-----------17-15-14-15-17-15-14-15-14-12-|
E-17--17-16-------------------------------|

                               En el cieeeeloooooooo
Cada uno se repite (x4)
E------|------|------|------|
A------|------|------|------|
D------|------|------|------|
G-15---|-14---|-15---|-17---|
B--14--|--14--|--14--|--14--|
E---17-|---17-|---17-|---17-|

Guitarra 1
Deejaríaaaaaaaaaaa, dee pensar een tiii
E-5-5-5-5--5-5-5-5--4-4-4-4--2-2-2-2-|
A-7-7-7-7--7-7-7-7--6-6-6-6--4-4-4-4-|
D-7-7-7-7--7-7-7-7--6-6-6-6--4-4-4-4-|
G------------------------------------|(x2)
B------------------------------------|
E -----------------------------------|
       Poooooor queeee teee eextraaañooooo
E-5-5-5x-5x--5-5-5x-5x--4-4-4x-4x--2-2-2-2-|
A-7-7-7x-7x--7-7-7x-7x--6-6-6x-6x--4-4-4-4-|
D-7-7-7x-7x--7-7-7x-7x--6-6-6x-6x--4-4-4-4-|
G------------------------------------------|
B------------------------------------------|
E -----------------------------------------|
Y no puedo olvidaaaar                 y nooo puedo olvidaar
E-5-5-5x-5x--5-5-5x-5x--4-4-4x-4x-----------------------|
A-7-7-7x-7x--7-7-7x-7x--6-6-6x-6x-----------------------|
D-7-7-7x-7x--7-7-7x-7x--6-6-6x-6x-----------7-----------|
G---------------------------------7-6p7-6p7---6p7-6p7-6-|
B-------------------------------------------------------|
E ------------------------------------------------------|
Koro:

     QuizaaaS noo es laa vidaa coreectaa
E-5-5-5-5--x-x-x-x-x-x-x-x-x-x-x-7-|
A-7-7-7-7--4-5-5-5-5-4-4-4-4-5-4-9-|
D-7-7-7-7--6-7-7-7-7-6-6-6-6-7-6-9-|(x1)
G----------6-7-7-7-7-6-6-6-6-7-6---|
B----------------------------------|
E ---------------------------------|


Taal vezz el mundoo girooooo
E-5-5-5-5-x-x-x-x-x-x-x-x-x-x-x-x-x-x-7-|
A-7-7-7-7-4-4-4-4-5-5-5-5-4-4-4-4-5-4-9-|
D-7-7-7-7-6-6-6-6-7-7-7-7-6-6-6-6-7-6-9-|
G---------6-6-6-6-7-7-7-7-6-6-6-6-7-6---|(x3)
B---------------------------------------|
E --------------------------------------|

Entra bajo y enseguida guitarra haciendo lo siguiente al ritmo
del bajo

Guitarra 1

E-------------7--7-5-|     E-------------7-(x5)-5(x5)-|
A-4--4-4/5--5--------|     A-4(x5)-5(x5)--------------|
D--------------------|(x1) D--------------------------|
G--------------------|     G--------------------------|(x2)
B--------------------|     B--------------------------|
E--------------------|     E--------------------------|

                    (Voz de fondo)       No hee podidooooo
E----------------------------------------------------------
A----------------------------------------------------------
D----------------------------------------------------------
G-9--9--9--9--7-7-6-6-9--9--9--9--------6-6-9--9---------7-
B--10-10-10-10-8-8-7-7-10-10-10-10-------7-7-10-10--------8
E --------------------------------9-11-9----------9-11-9---
 Nunca podreeeeee
E------------------------------------------------|
A------------------------------------------------|
D------------------------------------------------|
G-7-6-6-9--9--9--9--7-7-6-6-9--9--9--9--7-7-6-6--|
B--8-7-7-10-10-10-10-8-8-7-7-10-10-10-10-8-8-7-7-|
E -----------------------------------------------|


No he podido y nunca podreee ..

E-x-x-x-x-x-x-x-x-7-7-7-7-5-5-5-5-|
A-4-4-4-4-5-5-5-5-9-9-9-9-7-7-7-7-|
D-6-6-6-6-7-7-7-7-9?9-9-9-7-7-7-7-|
G-6-6-6-6-7-7-7-7-----------------|(x4)
B---------------------------------|
E --------------------------------|

E---------------------|
A---------------------|
D---------------------|
G-9--9--9--9--7-7-6-6-|(x4)
B-10-10-10-10-8-8-7-7-|
E --------------------|


ESO ES TOODO ESPERO KE LES LATA NO SERA LA GRAN
TRANSCRIPCION PERO ESTA HEXA KON TODO KARIÑO <3

AHÍ LES DEJO LA LETRA

COLCHON ? TAL VEZ EN OTRA VIDA

AUN SIGO PENSANDO
EN LO QUE NO DEBIO PASAR
NO DEBIA PASAR

DESEARIA PODER SABER
QUE TAMPOCO PUEDES DEJARME ATRÁS

POR QUE BUSCANCO OLVIDARTE
SOLO ENCONTRE QUE TE QUERIA MAS

CORO:
QUIZA NO ES LA VIDA CORRECTA
TAL VEZ EL MUNDO GIRO
NO HE PODIDO Y NUNCA PODRE OLVIDAR

TE QUIERO VER (TE QUIERO VER)
Y VIVIR LOS MOMENTOS FELICES DE NUEVO
Y DIBUJAR ESTRELLAS EN EL CIELO (EN EL CIELO)

DEJARIA DE PENSAR EN TI
SI TAN SOLO MURIERA
LO QUE SIENTO

POR QUE TE EXTRAÑO
Y NO PUEDO OLVIDAR (Y NO PUEDO OLVIDAR)


CORO:
QUIZA NO ES LA VIDA CORRECTA
TAL VEZ EL MUNDO GIRO
NO HE PODIDO Y NUNCA PODRE OLVIDAR

(NO HE PODIDO, NUNCAA PODREE)
(NO HE PODIDO, NUNCAA PODREE)
(NO HE PODIDO, NUNCAA PODREE)
(NO HE PODIDO, NUNCA PODREE) QUIZA NO ES LA VIDA CORRECTA
(NO HE PODIDO, NUNCA PODREE) TAAL VEZZ EL MUNDO
¡¡¡GIROOOOOOOOOOOOOOOOOO!!!
Suggest correction
Creating personal tab
Creating personal tab
You can edit any tab online and save it as your Personal.

You can edit, replace or remove any tab part or add personal notes – all changes will be seen only by you.

Personal tabs can be accessed anytime from any device, even offline.
Learn more »
Give kudos to tab author, rate the tab!
1 2 3 4 5
comments
print report bad tab
guest
Wanna post a correction for this tab? Suggest correction