Oops, an error
Loading. Please wait.

The Break tab

version 2
version 2

Whole song

by Cold
74 views 1 this week
no commentswrite comment
1 2 3 4 5
3 more votes to show rating
add to favorites
×
Save as Personal and add changes to this tab that will be seen only by you. Learn more ›
×
You can save this tab as Personal to edit and correct it or add notes. All changes will be seen only by you. Learn more »
launch autoscroll
font size
0
reset
how to read this tab
guitar tuner
edit
Autoscroll
slow
fast
+/-
esc
set tempo
stop
Difficulty
-------------------------------------------------------------------------------
                             The Break - Cold 
-------------------------------------------------------------------------------
Tabbed by: Michael.R

I'm not going to claim that its 100% accurate, but it sound good to me. 



Tuning: Standard 

Intro/Verse:
e|---------------------------------------------------------------------------|
B|---------------------------------------------------------------------------|    
G|---------------------------------------------------------------------------|
D|---------------------------------------------------------------------------|      Repeat three times 
A|-2----3---5---8--5--3-------------------------------------------------------
E|0---0---0---0--------------------------------------------------------------- 

Feeling like we're worlds away
Won't be long
Distance only separates
Same old song



Chorus:
C     G 
On my way home

Am
Saddest thing she said                         Repeat once

F
On the night when she went away from me




Verse:
e|---------------------------------------------------------------------------|
B|---------------------------------------------------------------------------|    
G|---------------------------------------------------------------------------|
D|---------------------------------------------------------------------------|      Repeat once 
A|-2----3---5---8--5--3-------------------------------------------------------
E|0---0---0---0--------------------------------------------------------------- 

Every time you went away
I always knew
Feels like murder one today
Sad but true



Chorus:
C     G 
On my way home

Am
Saddest thing she said                         Repeat once

F
On the night when she went away from me





Bridge
e |----------------------------------------|
B |----------------------------------------|
G |-13-12-10-12-----------------------13---|
D |---------------------12-----13----------| 4x
A |----------------------------------------|
E |----------------------------------------|

e |-16-15-13-15-----------------------16---|
B |---------------------15-----16----------|
G |----------------------------------------|
D |----------------------------------------| 4x
A |----------------------------------------|
E |----------------------------------------|



************************************

| /   slide up
| \   slide down
| h   hammer-on
| p   pull-off
| ~   vibrato
| +   harmonic
| x   Mute note
| b   Bend
| pb  Pre-bend
| br  Bend release
| pbr Pre-bend release
| brb Bend release bend

************************************

            
            
Suggest correction
Creating personal tab
Creating personal tab
You can edit any tab online and save it as your Personal.

You can edit, replace or remove any tab part or add personal notes – all changes will be seen only by you.

Personal tabs can be accessed anytime from any device, even offline.
Learn more »
Give kudos to tab author, rate the tab!
1 2 3 4 5
comments
print report bad tab
guest
Wanna post a correction for this tab? Suggest correction