Oops, an error
Loading. Please wait.

When Angels Fly Away tab

version 2
version 2

Whole song

by Cold
151 views 3 this week
2 commentsread comments
1 2 3 4 5
1 last vote to show rating
add to favorites
×
Save as Personal and add changes to this tab that will be seen only by you. Learn more ›
×
You can save this tab as Personal to edit and correct it or add notes. All changes will be seen only by you. Learn more »
launch autoscroll
font size
0
reset
how to read this tab
guitar tuner
edit
Autoscroll
slow
fast
+/-
esc
set tempo
stop
-------------------------------------------------------------------------------
                             When Angels Fly Away - Cold
-------------------------------------------------------------------------------
Tabbed by:grubs_r_good
E-mail:joey_hang@yahoo.com

Tuning: Low to High (C F Bb Eb G c) down 2 whole steps

Intro x1

Guitar 1 

c |------------------------------------------------------------------------------------|
G |------------------------------------------------------------------------------------|
Eb|-----------------------5-5-5-5-5-5-5-5-5--------------------------------------------|
Bb|--7-7-7-7-7-7-7-7-7----5-5-5-5-5-5-5-5-5----3-3-3-3-3-3-3-3-3----5-5-5-5-5-5-5-5-5--|
F |--7-7-7-7-7-7-7-7-7----3-3-3-3-3-3-3-3-3----3-3-3-3-3-3-3-3-3----5-5-5-5-5-5-5-5-5--|
C |--5-5-5-5-5-5-5-5-5-------------------------1-1-1-1-1-1-1-1-1----3-3-3-3-3-3-3-3-3--|
       v     v   v   v      v     v   v   v      v     v   v   v      v     v   v   v 

Verse 1  (I'll make a soldier's decision to fly away...)

Guitar 1 x4
               
c |------------------------------------------------------------------------------------|
G |------------------------------------------------------------------------------------|
Eb|-----------------------5-5-5-5-5-5-5-5-5--------------------------------------------|
Bb|--7-7-7-7-7-7-7-7-7----5-5-5-5-5-5-5-5-5----3-3-3-3-3-3-3-3-3----5-5-5-5-5-5-5-5-5--|
F |--7-7-7-7-7-7-7-7-7----3-3-3-3-3-3-3-3-3----3-3-3-3-3-3-3-3-3----5-5-5-5-5-5-5-5-5--|
C |--5-5-5-5-5-5-5-5-5-------------------------1-1-1-1-1-1-1-1-1----3-3-3-3-3-3-3-3-3--|
       v     v   v   v      v     v   v   v      v     v   v   v      v     v   v   v 

Guitar 2- with a delay effect x16

c |-12-------12---------------------------------------------------------------|
G |-----13-------13--12-----12------12--12------------------------------------|
Eb|---------------------12-----12-----12--12----------------------------------|
Bb|---------------------------------------------------------------------------|
F |---------------------------------------------------------------------------|
C |---------------------------------------------------------------------------|

Chorus 1 (I can't be home tonight...)

Guitar 1 x1 
       
c |------------------------------------------------------------------------------------|
G |------------------------------------------------------------------------------------|
Eb|-----------------------------------------------------------5-5-5-5-5-5-5-5-5--------|
Bb|--3-3-3-3-3-3-3-3-3--5-5-5-5-5-5-5-5-5--7-7-7-7-7-7-7-7-7--5-5-5-5-5-5-5-5-5--------|
F |--3-3-3-3-3-3-3-3-3--5-5-5-5-5-5-5-5-5--7-7-7-7-7-7-7-7-7--3-3-3-3-3-3-3-3-3--------|
C |--1-1-1-1-1-1-1-1-1--3-3-3-3-3-3-3-3-3--5-5-5-5-5-5-5-5-5---------------------------|
       v     v   v   v    v     v   v   v    v     v   v   v    v     v   v   v

c |------------------------------------------------------------------------------------|
G |------------------------------------------------------------------------------------|
Eb|-----------------------------------------------------------5-5-5-5-5-5-5-5-5--------|
Bb|--3-3-3-3-3-3-3-3-3--5-5-5-5-5-5-5-5-5--7-7-7-7-7-7-7-7-7--5-5-5-5-5-5-5-5-5--------|
F |--3-3-3-3-3-3-3-3-3--5-5-5-5-5-5-5-5-5--7-7-7-7-7-7-7-7-7--3-3-3-3-3-3-3-3-3--------|
C |--1-1-1-1-1-1-1-1-1--3-3-3-3-3-3-3-3-3--5-5-5-5-5-5-5-5-5---------------------------|
       v     v   v   v    v     v   v   v    v     v   v   v    v     v   v   v

Guitar 2 x2

c |--8-7------8-7---10-----8-7-------8-7---10---------------------------------|
G |-------8----------------------8--------------------------------------------|
Eb|---------------------------------------------------------------------------|
Bb|---------------------------------------------------------------------------|
F |---------------------------------------------------------------------------|
C |---------------------------------------------------------------------------|

Intro x1

Guitar 1 

c |------------------------------------------------------------------------------------|
G |------------------------------------------------------------------------------------|
Eb|-----------------------5-5-5-5-5-5-5-5-5--------------------------------------------|
Bb|--7-7-7-7-7-7-7-7-7----5-5-5-5-5-5-5-5-5----3-3-3-3-3-3-3-3-3----5-5-5-5-5-5-5-5-5--|
F |--7-7-7-7-7-7-7-7-7----3-3-3-3-3-3-3-3-3----3-3-3-3-3-3-3-3-3----5-5-5-5-5-5-5-5-5--|
C |--5-5-5-5-5-5-5-5-5-------------------------1-1-1-1-1-1-1-1-1----3-3-3-3-3-3-3-3-3--|
       v     v   v   v      v     v   v   v      v     v   v   v      v     v   v   v 

Verse 2  (Got a badge for my scars just the other day...)

Guitar 1 x4

c |------------------------------------------------------------------------------------|
G |------------------------------------------------------------------------------------|
Eb|-----------------------5-5-5-5-5-5-5-5-5--------------------------------------------|
Bb|--7-7-7-7-7-7-7-7-7----5-5-5-5-5-5-5-5-5----3-3-3-3-3-3-3-3-3----5-5-5-5-5-5-5-5-5--|
F |--7-7-7-7-7-7-7-7-7----3-3-3-3-3-3-3-3-3----3-3-3-3-3-3-3-3-3----5-5-5-5-5-5-5-5-5--|
C |--5-5-5-5-5-5-5-5-5-------------------------1-1-1-1-1-1-1-1-1----3-3-3-3-3-3-3-3-3--|
       v     v   v   v      v     v   v   v      v     v   v   v      v     v   v   v 

Guitar 2- with a delay effect  x16

c |-12-------12---------------------------------------------------------------|
G |-----13-------13--12-----12------12--12------------------------------------|
Eb|---------------------12-----12-----12--12----------------------------------|
Bb|---------------------------------------------------------------------------|
F |---------------------------------------------------------------------------|
C |---------------------------------------------------------------------------|

Chorus 2 (I can't be home tonight...)

Guitar 1 x1 
       
c |------------------------------------------------------------------------------------|
G |------------------------------------------------------------------------------------|
Eb|-----------------------------------------------------------5-5-5-5-5-5-5-5-5--------|
Bb|--3-3-3-3-3-3-3-3-3--5-5-5-5-5-5-5-5-5--7-7-7-7-7-7-7-7-7--5-5-5-5-5-5-5-5-5--------|
F |--3-3-3-3-3-3-3-3-3--5-5-5-5-5-5-5-5-5--7-7-7-7-7-7-7-7-7--3-3-3-3-3-3-3-3-3--------|
C |--1-1-1-1-1-1-1-1-1--3-3-3-3-3-3-3-3-3--5-5-5-5-5-5-5-5-5---------------------------|
       v     v   v   v    v     v   v   v    v     v   v   v    v     v   v   v
c |------------------------------------------------------------------------------------|
G |------------------------------------------------------------------------------------|
Eb|-----------------------------------------------------------5-5-5-5-5-5-5-5-5--------|
Bb|--3-3-3-3-3-3-3-3-3--5-5-5-5-5-5-5-5-5--7-7-7-7-7-7-7-7-7--5-5-5-5-5-5-5-5-5--------|
F |--3-3-3-3-3-3-3-3-3--3-3-3-3-3-3-3-3-3--7-7-7-7-7-7-7-7-7--3-3-3-3-3-3-3-3-3--------|
C |--1-1-1-1-1-1-1-1-1--3-3-3-3-3-3-3-3-3--5-5-5-5-5-5-5-5-5---------------------------|
       v     v   v   v    v     v   v   v    v     v   v   v    v     v   v   v
c |------------------------------------------------------------------------------------|
G |------------------------------------------------------------------------------------|
Eb|-----------------------------------------------------------5-5-5-5-5-5-5-5-5--------|
Bb|--3-3-3-3-3-3-3-3-3--5-5-5-5-5-5-5-5-5--7-7-7-7-7-7-7-7-7--5-5-5-5-5-5-5-5-5--------|
F |--3-3-3-3-3-3-3-3-3--5-5-5-5-5-5-5-5-5--7-7-7-7-7-7-7-7-7--3-3-3-3-3-3-3-3-3--------|
C |--1-1-1-1-1-1-1-1-1--3-3-3-3-3-3-3-3-3--5-5-5-5-5-5-5-5-5---------------------------|
       v     v   v   v    v     v   v   v    v     v   v   v    v     v   v   v
c |------------------------------------------------------------------------------------|
G |------------------------------------------------------------------------------------|
Eb|------------------------------------------------------------------------------------|
Bb|--3-3-3-3-3-3-3-3-3--5-5-5-5-5-5-5-5-5--7-7-7-7-7-7-7-7-7--5-5-5-5-5-5-5-5-5--------|
F |--3-3-3-3-3-3-3-3-3--5-5-5-5-5-5-5-5-5--7-7-7-7-7-7-7-7-7--5-5-5-5-5-5-5-5-5--------|
C |--1-1-1-1-1-1-1-1-1--3-3-3-3-3-3-3-3-3--5-5-5-5-5-5-5-5-5--3-3-3-3-3-3-3-3-3--------|
       v     v   v   v    v     v   v   v                  v                  v 

Guitar 2 x1

c |--8-7------8-7---10-----8-7-------8-7---10---------------------------------|
G |-------8----------------------8--------------------------------------------|
Eb|---------------------------------------------------------------------------|
Bb|---------------------------------------------------------------------------|
F |---------------------------------------------------------------------------|
C |---------------------------------------------------------------------------|

c |--8-7------8-7---10-----8-7-------8-7---10---------------------------------|
G |-------8----------------------8--------------------------------------------|
Eb|---------------------------------------------------------------------------|
Bb|---------------------------------------------------------------------------|
F |---------------------------------------------------------------------------|
C |---------------------------------------------------------------------------|

c |--8-7------8-7---10-----8-7-------8-7---10---------------------------------|
G |-------8----------------------8--------------------------------------------|
Eb|---------------------------------------------------------------------------|
Bb|---------------------------------------------------------------------------|
F |---------------------------------------------------------------------------|
C |---------------------------------------------------------------------------|

c |--8-7------8-7---10--------------------------------------------------------|
G |-------8-------------------------------------------------------------------|
Eb|---------------------------------------------------------------------------|
Bb|---------------------------------------------------------------------------|
F |---------------------------------------------------------------------------|
C |---------------------------------------------------------------------------|


Bridge (Half as good as you...)

Guitar 2 x1

c |--8-7------8-7---10-----8-7-------8-7---10---------------------------------|
G |-------8----------------------8--------------------------------------------|
Eb|---------------------------------------------------------------------------|
Bb|---------------------------------------------------------------------------|
F |---------------------------------------------------------------------------|
C |---------------------------------------------------------------------------|

Solo

Guitar 1 x1

c |------------------------------------------------------------------------------------|
G |------------------------------------------------------------------------------------|
Eb|--------------------------------------------5-5-5-5-5-5-5-5-5-----------------------|
Bb|--7-7-7-7-7-7-7-7-7----5-5-5-5-5-5-5-5-5----5-5-5-5-5-5-5-5-5----5-5-5-5-5-5-5-5-5--|
F |--7-7-7-7-7-7-7-7-7----3-3-3-3-3-3-3-3-3----3-3-3-3-3-3-3-3-3----5-5-5-5-5-5-5-5-5--|
C |--5-5-5-5-5-5-5-5-5----1-1-1-1-1-1-1-1-1-------------------------3-3-3-3-3-3-3-3-3--|
       v     v   v   v      v     v   v   v      v     v   v   v      v     v   v   v 
c |------------------------------------------------------------------------------------|
G |------------------------------------------------------------------------------------|
Eb|--------------------------------------------5-5-5-5-5-5-5---------------------------|
Bb|--7-7-7-7-7-7-7-7-7----5-5-5-5-5-5-5-5-5----5-5-5-5-5-5-5---------------------------|
F |--7-7-7-7-7-7-7-7-7----3-3-3-3-3-3-3-3-3----3-3-3-3-3-3-3---3-5-3-0-2--3-2----------|
C |--5-5-5-5-5-5-5-5-5----1-1-1-1-1-1-1-1-1--------------------------------------------|
       v     v   v   v      v     v   v   v      v   v   v  

Guitar 2 x1

c |--5-555--7-77-7-7-7-8-888-10-1010-10-10-10-1212-1212-1212-1212---1313-1313-1212-----|
G |------------------------------------------------------------------------------------|
Eb|------------------------------------------------------------------------------------|
Bb|------------------------------------------------------------------------------------|
F |------------------------------------------------------------------------------------|
C |------------------------------------------------------------------------------------|

c |-1212---1010-1010-1515-1515-1313-1313-1212-1212-1010-1010--555-777-888-101010--777--|
G |------------------------------------------------------------------------------------|
Eb|------------------------------------------------------------------------------------|
Bb|------------------------------------------------------------------------------------|
F |------------------------------------------------------------------------------------|
C |------------------------------------------------------------------------------------|

c |-888-777-888-101010-7-8-7--5------8--7----------------------------------------------|
G |------------------------------------------------------------------------------------|
Eb|------------------------------------------------------------------------------------|
Bb|------------------------------------------------------------------------------------|
F |------------------------------------------------------------------------------------|
C |------------------------------------------------------------------------------------|


Chorus 3 (I can't be home tonight...)

Guitar 1 x1

c |------------------------------------------------------------------------------------|
G |------------------------------------------------------------------------------------|
Eb|-----------------------------------------------------------5-5-5-5-5-5-5-5-5--------|
Bb|--3-3-3-3-3-3-3-3-3--5-5-5-5-5-5-5-5-5--7-7-7-7-7-7-7-7-7--5-5-5-5-5-5-5-5-5--------|
F |--3-3-3-3-3-3-3-3-3--5-5-5-5-5-5-5-5-5--7-7-7-7-7-7-7-7-7--3-3-3-3-3-3-3-3-3--------|
C |--1-1-1-1-1-1-1-1-1--3-3-3-3-3-3-3-3-3--5-5-5-5-5-5-5-5-5---------------------------|
       v     v   v   v    v     v   v   v    v     v   v   v    v     v   v   v
c |------------------------------------------------------------------------------------|
G |------------------------------------------------------------------------------------|
Eb|-----------------------------------------------------------4-4-4-4-4-4-4-4-4--------|
Bb|--3-3-3-3-3-3-3-3-3--5-5-5-5-5-5-5-5-5--7-7-7-7-7-7-7-7-7--4-4-4-4-4-4-4-4-4--------|
F |--3-3-3-3-3-3-3-3-3--3-3-3-3-3-3-3-3-3--7-7-7-7-7-7-7-7-7--2-2-2-2-2-2-2-2-2--------|
C |--1-1-1-1-1-1-1-1-1--3-3-3-3-3-3-3-3-3--5-5-5-5-5-5-5-5-5---------------------------|
       v     v   v   v    v     v   v   v    v     v   v   v    v     v   v   v
c |------------------------------------------------------------------------------------|
G |------------------------------------------------------------------------------------|
Eb|-----------------------------------------------------------5-5-5-5-5-5-5-5-5--------|
Bb|--3-3-3-3-3-3-3-3-3--5-5-5-5-5-5-5-5-5--7-7-7-7-7-7-7-7-7--5-5-5-5-5-5-5-5-5--------|
F |--3-3-3-3-3-3-3-3-3--5-5-5-5-5-5-5-5-5--7-7-7-7-7-7-7-7-7--3-3-3-3-3-3-3-3-3--------|
C |--1-1-1-1-1-1-1-1-1--3-3-3-3-3-3-3-3-3--5-5-5-5-5-5-5-5-5---------------------------|
       v     v   v   v    v     v   v   v    v     v   v   v    v     v   v   v
c |------------------------------------------------------------------------------------|
G |------------------------------------------------------------------------------------|
Eb|------------------------------------------------------------------------------------|
Bb|--3-3-3-3-3-3-3-3-3--5-5-5-5-5-5-5-5-5--7-7-7-7-7-7-7-7-7--5-5-5-5-5-5-5-5-5---7~---|
F |--3-3-3-3-3-3-3-3-3--5-5-5-5-5-5-5-5-5--7-7-7-7-7-7-7-7-7--5-5-5-5-5-5-5-5-5---7~---| 
C |--1-1-1-1-1-1-1-1-1--3-3-3-3-3-3-3-3-3--5-5-5-5-5-5-5-5-5--3-3-3-3-3-3-3-3-3---5~---|
       v     v   v   v    v     v   v   v                  v                  v 

Guitar 2 x1

c |--8-7------8-7---10-----8-7-------8-7---10---------------------------------|
G |-------8----------------------8--------------------------------------------|
Eb|---------------------------------------------------------------------------|
Bb|---------------------------------------------------------------------------|
F |---------------------------------------------------------------------------|
C |---------------------------------------------------------------------------|

c |--8-7------8-7---10-----8-7-------8-7---10---------------------------------|
G |-------8----------------------8--------------------------------------------|
Eb|---------------------------------------------------------------------------|
Bb|---------------------------------------------------------------------------|
F |---------------------------------------------------------------------------|
C |---------------------------------------------------------------------------|

c |--8-7------8-7---10-----8-7-------8-7---10---------------------------------|
G |-------8----------------------8--------------------------------------------|
Eb|---------------------------------------------------------------------------|
Bb|---------------------------------------------------------------------------|
F |---------------------------------------------------------------------------|
C |---------------------------------------------------------------------------|

c |--8-7------8-7---10------88888888-1010101010101010-------------------------|
G |-------8--------------------------------------------10~--------------------|
Eb|---------------------------------------------------------------------------|
Bb|---------------------------------------------------------------------------|
F |---------------------------------------------------------------------------|
C |---------------------------------------------------------------------------|





************************************

| v   up stroke
| ~   ring the note

************************************

            
            
Suggest correction
Creating personal tab
Creating personal tab
You can edit any tab online and save it as your Personal.

You can edit, replace or remove any tab part or add personal notes – all changes will be seen only by you.

Personal tabs can be accessed anytime from any device, even offline.
Learn more »
Give kudos to tab author, rate the tab!
1 2 3 4 5
comments
print report bad tab
2 comments total.
0 reply
Hajiki 84 Oct 05, 2015 11:16 AM

Clearly wrong. The existing version of this song's tab was already quite accurate; This one is not even close. 100% incorrect. Doesn't belong on the site.

0 reply
Hajiki 84 Oct 05, 2015 11:16 AM

Who the hell rated this 5 stars? This is.... No. Just no.

guest
You may want to rate the tab now too:
select rating
Wanna post a correction for this tab? Suggest correction