Oops, an error
Loading. Please wait.

Wicked World Tab

by Cold
648 views 1 this week
no commentswrite comment
1 2 3 4 5
excellent!
x 3
add to favorites
launch autoscroll
font size
0
reset
how to read this tab
guitar tuner
Autoscroll
slow
fast
+/-
esc
set tempo
stop
Help us to improve Ultimate-Guitar.com Take our survey!
×
Author
Difficulty
Tuning
novice
C G C F A D
Cold: Wicked World

Transcribed by: mysticguitar77

YouTube Username: MysticGuitar77

Date last modified: December 18, 2012

Tuning: Drop C (C,G,C,F,A,D)

Notes: I know Cold does not use Drop C tuning they usually play in C Standard, 
       but since that's a pretty low tuning for the average guitar to get to, I
       learned this song in a more conventional Drop C tuning. Not wrong by any
       means, it still sounds exactly like the song, just different how you
       have to play it.

Riff 1 (heavy tremolo effect)
D|------------------------------------------------------------------|
A|------------------------------------------------------------------|
F|------------------------------------------------------------------|
C|---------1(1)------------1(1)------------1(1)------------1(1)-----|
G|------------------------------------------------------------------|
C|-1(1)1(1)----1(1)1(1)1(1)----1(1)1(1)1(1)----1(1)1(1)1(1)----1(1)-|

D|------------------------------------------------------------------|
A|------------------------------------------------------------------|
F|------------------------------------------------------------------|
C|---------5(5)------------5(5)------------5(5)------------5(5)-----|
G|------------------------------------------------------------------|
C|-5(5)5(5)----5(5)5(5)5(5)----5(5)5(5)5(5)----5(5)5(5)5(5)----5(5)-|

Riff 1 note: The notes in parentheses represent the tremolo effect, the notes
             outside the parentheses are the notes you actually pick.

Play Riff 1 x2

Riff 2
D|-------------------------------------------------|
A|-------------------------------------------------|
F|-------------------------------------------------|
C|-1-1---------1-1---------1-1---------1-1---------|
G|-1-1---------1-1---------1-1---------1-1---------|
C|-1-1-1-1-1-1-1-1-1-1-1-1-1-1-1-1-1-1-1-1-1-1-1-1-|
       * * * *     * * * *     * * * *     * * * *

D|-------------------------------------------------|
A|-------------------------------------------------|
F|-------------------------------------------------|
C|-7-7---------7-7---------7-7---------7-7---------|
G|-5-5---------5-5---------5-5---------5-5---------|
C|-5-5-5-5-5-5-5-5-5-5-5-5-5-5-5-5-5-5-5-5-5-5-5-5-|
       * * * *     * * * *     * * * *     * * * *

Riff 3    "There's blood on the gun that's in your hand..."
D|-----------------------------------------|
A|-----------------------------------------|
F|-----------------------------------------|
C|-1-1---------1-1---------7-7---------7-7-|
G|-1-1---------1-1---------5-5---------5-5-|
C|-1-1---------1-1---------5-5---------5-5-|

D|-------------------------------------------------------------|
A|-------------------------------------------------------------|
F|-------------------------------------------------------------|
C|-1-1---------1-1---------7-7---------------------------------|
G|-1-1---------1-1---------5-5---------5-5---------5-5---------|
C|-1-1---------1-1---------5-5-5-5-5-5-7-7-7-7-7-7-8-8-8-8-8-8-|
                               * * * *     * * * *     * * * *

D|-------------------------|
A|-------------------------|
F|-------------------------|
C|-------------------------|
G|-------------------------|
C|-10-10-10-10-10-10-10-10-|

Riff 4    "This means war..."
D|-------------------------------------------------|
A|-------------------------------------------------|
F|-10-10-10-10-12-12-12-12-14-14-14-14-12-12-10-10-|
C|-x--x--x--x--x--x--x--x--x--x--x--x--x--x--x--x--|
G|-8--8--8--8--10-10-10-10-12-12-12-12-10-10-8--8--|
C|-------------------------------------------------|

D|---------------------------------|
A|---------------------------------|
F|-9-9-9-9-7-7-7-7-6-6-6-6-9-9-9-9-|
C|-x-x-x-x-x-x-x-x-x-x-x-x-x-x-x-x-|
G|-7-7-7-7-5-5-5-5-4-4-4-4-7-7-7-7-|
C|---------------------------------|

Riff 5    "Did the sun just burn out leaving you all alone..."
D|-------------------------|
A|----6-5~----6-5~---------|
F|---------5~------3~---2~-|
C|-0~------5~------3~-3----|
G|-0~------3~------1~------|
C|-0~----------------------|

D|---------------|
A|---------------|
F|---------------|
C|-5--8--7-7-7-3-|
G|-5--8--7-7-7-3-|
C|-5--8--7-7-7-3-|

Riff 6    "Living in a wicked world..."
D|--------------------------------------------------|
A|--------------------------------------------------|
F|-7-------10------9-------7-------10------14-------|
C|-x-(x16)-x--(x6)-x-(x10)-x-(x16)-x--(x6)-x--(x10)-|
G|-5-------8-------7-------5-------8-------12-------|
C|--------------------------------------------------|

D|-----------------------------------------------------------|
A|-----------------------------------------------------------|
F|-7-------12------9-------14------10-------14------18-------|
C|-x-(x16)-x--(x6)-x-(x10)-x--(x6)-x--(x10)-x--(x6)-x--(x10)-|
G|-5-------10------7-------12------8--------12------16-------|
C|-----------------------------------------------------------|

Note: Number in parentheses is number of times you strum each note.

Play Riff 3 x1    "Love was the fuel that drove your sin..."
Play Riff 2 x2    (2nd time through ends with the same ending as Riff 3)
Play Riff 4 x1    "This means war..."
Play Riff 5 x1    "Did the sun just burn out leaving you all alone..."

Riff 5 ending alteration
D|------------|
A|------------|
F|------------|
C|-5--8--7--3-|
G|-5--8--7--3-|
C|-5--8--7--3-|

Play Riff 6 x1    "Living in a wicked world..."

Riff 7 (light distortion)
D|-------------------------------------------------------------------|
A|-------------------------------------------------------------------|
F|-7-7-7-7-7-7-7-x-x-6-6-6-6-6-6-6-6-3-3-3-3-3-3-3-3-----------------|
C|-7-7-7-7-7-7-7-x-x-6-6-6-6-6-6-6-6-3-3-3-3-3-3-3-3-5-5-5-5-5-5-5-5-|
G|-5-5-5-5-5-5-5-x-x-4-4-4-4-4-4-4-4-1-1-1-1-1-1-1-1-5-5-5-5-5-5-5-5-|
C|---------------x-x---------------------------------5-5-5-5-5-5-5-5-|
                                                     * *
                                                     ^ (full distortion kicks
                                                        back on here)

Solo
D|--------------------------------------------------|
A|--------------------------------------------------|
F|-14-14-14-14--13--13-13-13-13b15-10~--7--7-9--10~-|
C|--------------------------------------------------|
G|--------------------------------------------------|
C|--------------------------------------------------|

D|----------------------------------------------------|
A|---------------------------------------------11-----|
F|-14-14-14-14--13--13-13-13-13b15 10~--9--12------12-|
C|----------------------------------------------------|
G|----------------------------------------------------|
C|----------------------------------------------------|

Riff 6 alteration    "Living in a wicked world..."
D|---------------------------------------------------|
A|---------------------------------------------------|
F|-7-------10------9-------10-------14------12-------|
C|-x-(x16)-x--(x6)-x-(x10)-x--(x16)-x--(x6)-x--(x10)-|
G|-5-------8-------7-------8--------12------10-------|
C|---------------------------------------------------|

D|------------------------------------------------------------------------|
A|------------------------------------------------------------------------|
F|-7-------10------9-------7------6-------7------9-------12------14-------|
C|-x-(x16)-x--(x6)-x-(x10)-x-(x6)-x-(x10)-x-(x6)-x-(x10)-x--(x6)-x--(x10)-|
G|-5-------8-------7-------5------4-------5------7-------10------12-------|
C|------------------------------------------------------------------------|

Riff 8    "A wicked world, somebody save me..."
D|-------------------------------------------------------------|
A|-------------------------------------------------------------|
F|-7-7-7-7-7-7---7-7-7-7-7-7-7---7-5-5-5-5-5-5---5-5-5-5-5-5-5-|
C|-7-7-7-7-7-7---7-7-7-7-7-7-7---7-5-5-5-5-5-5---5-5-5-5-5-5-5-|
G|-5-5-5-5-5-5---5-5-5-5-5-5-5---5-3-3-3-3-3-3---3-3-3-3-3-3-3-|
C|-------------------------------------------------------------|

D|------------------------------------------------------------------|
A|------------------------------------------------------------------|
F|-5-3-3-3-3-3-3---3-3-3-3-3-3-3---3--------------------------------|
C|-5-3-3-3-3-3-3---3-3-3-3-3-3-3---3-7-7-7-7-7-7-7-7-5--8--7--3--0~-|
G|-3-1-1-1-1-1-1---1-1-1-1-1-1-1---1-7-7-7-7-7-7-7-7-5--8--7--3--0~-|
C|-----------------------------------7-7-7-7-7-7-7-7-5--8--7--3--0~-|

Enjoy!!!
Suggest correction
Give kudos to tab author, rate the tab!
1 2 3 4 5
comments
print report bad tab
guest
You may want to rate the tab now too:
select rating
Wanna post a correction for this tab? Suggest correction