Oops, an error
Loading. Please wait.

Conversations tab

61 views 1 this week
no commentswrite comment
1 2 3 4 5
3 more votes to show rating
add to favorites
×
Save as Personal and add changes to this tab that will be seen only by you. Learn more ›
×
You can save this tab as Personal to edit and correct it or add notes. All changes will be seen only by you. Learn more »
launch autoscroll
font size
0
reset
how to read this tab
guitar tuner
edit
Autoscroll
slow
fast
+/-
esc
set tempo
stop
Author
[Intro] 
(Done on piano but can play on guitar also)

e|----------------------------------------------|----------------------------------------------|
B|------17-12-------17-12------17-12------17-12-|------17-12------17-12------17-12------17-12--|
G|---14----------14---------14---------14-------|---14---------14---------14---------14--------|
D|----------------------------------------------|----------------------------------------------|
A|-0-----------0----------0----------0----------|-0----------0----------0----------0-----------|
E|----------------------------------------------|----------------------------------------------|

e|---------------------------------|----------------------------------|
B|-------0-------0-------0-------0-|-------0-------0-------0-------0--|
G|-----9-------9-------9-------9---|-----9-------9-------9-------9----|
D|---7-------7-------7-------7-----|---7-------7-------7-------7------|
A|-0-------0-------0-------0-------|-0-------0-------0-------0--------|
E|---------------------------------|----------------------------------|

   Kneeling at the hotel reception        Violin a-sobbin' on his knee
e|---------------------------------------------------------------------------------|
B|---------------------------------------------------------------------------------|
G|--------------------7----------------7-------------------7-------------------7---|
D|-7---------2-----5--7--7----2-----5--7--7--2-----5-------7------7----2----5--7---|
A|-7---------2-----5--5--7----2-----5--5--7--2-----5-------5------7----2----5--5---|
E|-5---------0-----3-----5----0-----3-----5--0-----3--------------5----0----3------|

   Twenty bright rozellas on his shoulder            Coin from a wealthy Ceylonese
e|----------------------------------------------------------------------------------------|
B|----------------------------------------------------------------------------------------|
G|------------------------7---------------------7------------------------7----------------|
D|-7------2------5--------7------7----2----5----7----7----2------5-------7----7----2----5-|
A|-7------2------5--------5------7----2----5----5----7----2------5-------5----7----2----5-|
E|-5------0------3---------------5----0----3---------5----0------3------------5----0----3-|

   Hungry people hangin' on the corner              Other people cruisin' past in cars     
e|-------------------------------------------------------------------------------------------------------|
B|-------------------------------------------------------------------------------------------------------|
G|-----------------------7---------------------7--------------------------7----------------------------7-|
D|-7------2------5-------7------7----2----5----7----7-----2------5--------7-------7------2------5------7-|
A|-7------2------5-------5------7----2----5----5----7-----2------5--------5-------7------2------5------5-|
E|-5------0------3--------------5----0----3---------5-----0------3----------------5------0------3--------|
         
   Feeding on the fiction and the porno                   Staring at the tattoos and the scars
e|----------------------------------------------------------------------------------------------------------|
B|----------------------------------------------------------------------------------------------------------|
G|------------------------7----------------------------7-------------------------7------------------------7-|
D|-7-------2------5-------7-------7------2------5------7--7-------2------5-------7-------7------2-----5---7-|
A|-7-------2------5-------5-------7------2------5------5--7-------2------5-------5-------7------2-----5---5-|
E|-5-------0------3---------------5------0------3---------5-------0------3---------------5------0-----3-----|

   Conversations, Conversations, Icy nights and almighty patiencece
e|----------------------------------------------------------------|
B|----------------------------------------------------------------|
G|-2--------------5--------------7--------------10----------------|
D|-2--------------5--------------7--------------10----------------|
A|-0--------------3--------------5--------------8-----------------|
E|----------------------------------------------------------------|

   Well some of us are driven to ambition         Some of us are trapped behind the wheel 
e|----------------------------------------------------------------------------------------------------------|
B|----------------------------------------------------------------------------------------------------------|
G|----------------------------7--------------7---------------------------7-------------------------------7--|
D|------7-------2------5------7--7---2---5---7----7-------2------5-------7----------7------2------5------7--|
A|------7-------2------5------5--7---2---5---5----7-------2------5-------5----------7------2------5------5--|
E|------5-------0------3---------5---0---3--------5-------0------3------------------5------0------3---------|

   Some of us will break away                              Build a marble yesterday   
e|-----------------------------------------------------------------------------------------------------------|
B|-----------------------------------------------------------------------------------------------------------|
G|------------------------7---------------------------7-------------------------7---------------------------7|
D|-7-------2-------5------7------7------2------5------7----7-------2------5-----7------7------2------5------7|
A|-7-------2-------5------5------7------2------5------5----7-------2------5-----5------7------2------5------5|
E|-5-------0-------3-------------5------0------3-----------5-------0------3------------5------0------3-------|

   And live for every moment we can steal
e|----------------------------------------------|
B|----------------------------------------------|
G|---------------------------7----------------7-|
D|-----7--------2-----5------7--7---2----5----7-|
A|-----7--------2-----5------5--7---2----5----5-|
E|-----5--------0-----3---------5---0----3------|

   Conversations, Conversations, Shouting out across an empty station   
e|--------------------------------------------------------------------|
B|--------------------------------------------------------------------|
G|-2--------------2--------------5----------------------10------------|
D|-2--------------2--------------5----------------------10------------|
A|-0--------------0--------------3----------------------8-------------|
E|--------------------------------------------------------------------|

   Conversations, Conversations, Shouting out across an empty station   
e|--------------------------------------------------------------------|
B|--------------------------------------------------------------------|
G|-2--------------2--------------5----------------------10------------|
D|-2--------------2--------------5----------------------10------------|
A|-0--------------0--------------3----------------------8-------------|
E|--------------------------------------------------------------------|

[Guitar Solo] 
(Just improvise)

Now it's just another tuesday morning, Billy's wrapped up tight against the chill
Busker packs his birds beneath the awning, Billy's got his eyes upon the till.

   He could get a ticket out of here from a local easy lawyer
e|-------------------------------------------------------|
B|---------------17-12----------------------------17-12--|
G|------------14-------------------------------14--------|
D|-------------------------------------------------------|
A|----------0--------------------------------0-----------|
E|-------------------------------------------------------|

   Now the busker's halfway home, Billy's lounging round the foyer
e|---------------------------------------------------------------|
B|------------------17------12----------------------------17-12--|
G|------------14-----------------------------------14------------|
D|---------------------------------------------------------------|
A|----------0------------------------------0---------------------|
E|---------------------------------------------------------------|

  Love so easily dies when there's nothing left to conquer
e|-------------------------------------------------------|
B|---------------17-12----------------------------17-12--|
G|------------14---------------------------14------------|
D|-------------------------------------------------------|
A|----------0----------------------0---------------------|
E|-------------------------------------------------------|

   Conversations, Conversations, Shouting out across an empty station   
e|--------------------------------------------------------------------|
B|--------------------------------------------------------------------|
G|-2--------------2--------------5----------------------10------------|
D|-2--------------2--------------5----------------------10------------|
A|-0--------------0--------------3----------------------8-------------|
E|--------------------------------------------------------------------|

   Conversations, Conversations, Icy nights and almighty patience
e|----------------------------------------------------------------|
B|----------------------------------------------------------------|
G|-2--------------5--------------7--------------10----------------|
D|-2--------------5--------------7--------------10----------------|
A|-0--------------3--------------5--------------8-----------------|
E|----------------------------------------------------------------|

   Conversations, Conversations, Conversations, Conversations
e|------------------------------------------------------------|
B|------------------------------------------------------------|
G|-2--------------5--------------7--------------10------------|
D|-2--------------5--------------7--------------10------------|
A|-0--------------3--------------5--------------8-------------|
E|------------------------------------------------------------|

   Conversations, Conversations, Breakfast show to a sleepy nation 
e|-----------------------------------------------------------------|
B|-----------------------------------------------------------------|
G|-2--------------5--------------7-------------------10------------|
D|-2--------------5--------------7-------------------10------------|
A|-0--------------3--------------5-------------------8-------------|
E|-----------------------------------------------------------------|

   Conversations, Conversations, Conversations, Conversations
e|------------------------------------------------------------|
B|------------------------------------------------------------|
G|-2--------------5--------------7--------------10------------|
D|-2--------------5--------------7--------------10------------|
A|-0--------------3--------------5--------------8-------------|
E|------------------------------------------------------------|

   Conversations, Conversations, Breakfast show to a sleepy nation 
e|-----------------------------------------------------------------|
B|-----------------------------------------------------------------|
G|-2--------------5--------------7-------------------10------------|
D|-2--------------5--------------7-------------------10------------|
A|-0--------------3--------------5-------------------8-------------|
E|-----------------------------------------------------------------|

   Conversations, Conversations, Conversations, Conversations
e|------------------------------------------------------------|
B|------------------------------------------------------------|
G|-2--------------5--------------7--------------10------------|
D|-2--------------5--------------7--------------10------------|
A|-0--------------3--------------5--------------8-------------|
E|------------------------------------------------------------|
Suggest correction
Creating personal tab
Creating personal tab
You can edit any tab online and save it as your Personal.

You can edit, replace or remove any tab part or add personal notes – all changes will be seen only by you.

Personal tabs can be accessed anytime from any device, even offline.
Learn more »
Give kudos to tab author, rate the tab!
1 2 3 4 5
comments
print report bad tab
guest
You may want to rate the tab now too:
select rating
Wanna post a correction for this tab? Suggest correction