Oops, an error
Loading. Please wait.

Hair Down tab

version 1
version 1

Whole song

3,218 views 1 this week
3 commentsread comments
1 2 3 4 5
2 more votes to show rating
add to favorites
×
Save as Personal and add changes to this tab that will be seen only by you. Learn more ›
×
You can save this tab as Personal to edit and correct it or add notes. All changes will be seen only by you. Learn more »
launch autoscroll
font size
0
reset
how to read this tab
guitar tuner
edit
Autoscroll
slow
fast
+/-
esc
set tempo
stop
Author
Difficulty
intermediate
-------------------------------------------------------------------------------
                             Hair Down - Cold War Kids
-------------------------------------------------------------------------------
Tabbed by: milne

Tuning: Standard

Intro: 
e|--------------------------------------------------------------------------|
B|-----10-------------10-----------------10-------------10------------------|
G|-9/11--11--9--9-9/11--11---------9-9/11--11--9--9-9/11--11----------------|
D|---------11-11----------11-----------------11-11----------11--------------|
A|--------------------------------------------------------------------------|
E|--------------------------------------------------------------------------|
  x3

Main rhythm for the whole song:

e|------5----5----5--5--x-x--7--7--x-x--0----0--0--0--0---------------------|
B|-----5-----5----5--5--x-x--7--7--x-x--0----0--0--0--0---------------------|
G|----6------6----6--6--x-x--8--8--x-x--1----1--1--1--1---------------------|
D|---7-------7----7--7--x-x--9--9--x-x--2----2--2--2--2---------------------|
A|--7--------7----7--7--x-x--9--9--x-x--2----2--2--2--2---------------------|
E|-5---------5----5--5--x-x--7--7--x-x--0----0--0--0--0---------------------|


| /  slide up
| \  slide down
| h  hammer-on
| p  pull-off
| ~  vibrato
| +  harmonic
| x  Mute note
===============================================================================

            
            
Suggest correction
Creating personal tab
Creating personal tab
You can edit any tab online and save it as your Personal.

You can edit, replace or remove any tab part or add personal notes – all changes will be seen only by you.

Personal tabs can be accessed anytime from any device, even offline.
Learn more »
Give kudos to tab author, rate the tab!
1 2 3 4 5
comments
print report bad tab
3 comments total.
0 reply
redmanmarshall 10 Feb 21, 2007 12:55 PM

Good intro.

0 reply
inoino3 41 Sep 01, 2007 09:21 PM

e|------5----5----5--5--x-x--7--7--x-x--0----0--0--0--0---------------------|
B|-----5-----5----5--5--x-x--7--7--x-x--0----0--0--0--0---------------------|
G|----6------6----6--6--x-x--8--8--x-x--1----1--1--1--1---------------------|
D|---7-------7----7--7--x-x--9--9--x-x--2----2--2--2--2---------------------|
A|--7--------7----7--7--x-x--9--9--x-x--2----2--2--2--2---------------------|
E|-5---------5----5--5--x-x--7--7--x-x--0----0--0--0--0---------------------|
^^^^^^^^^^
^^^^^^^^^^
not sure about
that part

note: this variation below is from cold war kid's EP, With Our Wallets Full. since its an EP, it sounds a little different compared to the Hair Down song in the full album,(Robbers and Cowards). duh. there basically the same song with the same sounds/chords but i thought someone might realize this and argue. doesn't matter,

ok so anyway, i don't think the 022100 part is right. in the song after the 799877 part, theres a new chord thats higher than the other chords. i think it could be something like this:

first time you hear the rhythm at 1:07, play this:

1:07

e|----5----5--5--x-x--7--7---12---12-12-12-12---------|
B|----5----5--5--x-x--7--7---12---12-12-12-12---------|
G|----6----6--6--x-x--8--8---13---13-13-13-13---------|
D|----7----7--7--x-x--9--9---14---14-14-14-14---------|
A|----7----7--7--x-x--9--9---14---14-14-14-14---------|
E|----5----5--5--x-x--7--7---12---12-12-12-12---------|
V V V ^ V V V V V ^ V ^

V = (downstroke)
^ = (upstroke)

then the second time you hear the same riff at 1:12, just downstrum the 577655 part, once, in the beginning. dont strike the whole chord just play each note just let the pick fall down each string. if you listen to the song youll get it.
like this:

e|------5---5--5--x-x--7--7---12---12-12-12-12---------|
B|-----6----5--5--x-x--7--7---12---12-12-12-12---------|
G|----6-----6--6--x-x--8--8---13---13-13-13-13---------|
D|---7------7--7--x-x--9--9---14---14-14-14-14---------|
A|--7-------7--7--x-x--9--9---14---14-14-14-14---------|
E|-5--------5--5--x-x--7--7---12---12-12-12-12---------|

and so on. don't forget the strumming pattern.

well thats about it i felt like improvising and its just an idea and i hope any of it helps so good day tatatatata.

0 reply
inoino3 41 Sep 01, 2007 09:25 PM

the arrows were supposed to be pointing at the 022100 part and the downstroke/upstroke part didn't work either.. OOOOPPPPS.
every chord thats played at the 1:07 part is a either a downstroke/upstroke part. so 577655 would be downstroke like it says and then downstroke again and again and then when it gets to the scratchy mute noise, its upstroke then downstroke, you get the idea. so it still works if you just look at the arrow and then the chord it should work and make sense:)

guest
You may want to rate the tab now too:
select rating
Wanna post a correction for this tab? Suggest correction