Oops, an error
Loading. Please wait.

In Harmony In Silver intro tab

385 views 3 this week
1 commentread comment
1 2 3 4 5
3 more votes to show rating
add to favorites
×
Save as Personal and add changes to this tab that will be seen only by you. Learn more ›
×
You can save this tab as Personal to edit and correct it or add notes. All changes will be seen only by you. Learn more »
launch autoscroll
font size
0
reset
how to read this tab
guitar tuner
edit
Autoscroll
slow
fast
+/-
esc
set tempo
stop
Author
Difficulty
(standard tuning)


Cold War Kids
"In Harmony In Silver"
Mulberry Street EP

e|----x---------------------------------------------------------------------|
B|----x----7-------7-------7------7-------7---------------------------------|
G|----x---------------------------------------------------------------------|
D|----x------7-------7-------7------7-------7-------------------------------|
A|----x--5-----5-5-----5-5-----5-5----5-5-----------------------------------|
E|----x---------------------------------------------------------------------|


its played most of the song. i'm trying to figure out the rest of the song but it is 
intro is the easiest to figure out.

            
            
Suggest correction
Creating personal tab
Creating personal tab
You can edit any tab online and save it as your Personal.

You can edit, replace or remove any tab part or add personal notes – all changes will be seen only by you.

Personal tabs can be accessed anytime from any device, even offline.
Learn more »
Give kudos to tab author, rate the tab!
1 2 3 4 5
comments
print report bad tab
1 comment total.
0 reply
inoino3 41 Sep 04, 2007 05:42 AM

heres a similar way to play it


e|----x-----2------2-------2-------2--------2------------------------------------|
B|----x--------------------------------------------------------------------------|
G|----x------2-------2-------2-------2--------2----------------------------------|
D|----x---0----0-0-----0-0-----0-0-----0-0------0-0------------------------------|
A|----x--------------------------------------------------------------------------|
E|----x--------------------------------------------------------------------------|

you get the idea.

guest
You may want to rate the tab now too:
select rating
Wanna post a correction for this tab? Suggest correction