Oops, an error
Loading. Please wait.

Locker Room Talk Bass Tab

31 views 1 this week
no commentswrite comment
1 2 3 4 5
3 more votes to show rating
add to favorites
launch autoscroll
font size
0
reset
guitar tuner
Autoscroll
slow
fast
+/-
esc
set tempo
stop
Help us to improve Ultimate-Guitar.com Take our survey!
×
Author
Difficulty
novice
[Intro]

G|---------------------------------|
D|---------------------------------|
A|------------------------1-----1--|
E|--1h3--3-3-3---3-3-3-3-----3-----| x4


[Verse 1]

G|-------------------------|
D|-------------------------|
A|----------1-1s3~---3--1--|
E|--3~---3-----------------|

G|---------------------------------|
D|---------------------------------|
A|------------------------1-----1--|
E|--1h3--3-3-3---3-3-3-3-----3-----| x2

G|-------------------------|
D|-------------------------|
A|--------------1s3--3--1--|
E|--3~---3--1--------------|

G|---------------------------------|
D|---------------------------------|
A|------------------------1-----1--|
E|--1h3--3-3-3---3-3-3-3-----3-----|

G|---------------------------------|
D|---------------------------------|
A|------------------------1--------|
E|--1h3--3-3-3---3-3-3-3-----3--1--|


[Pre-chorus 1]

G|------------------------|            |
D|------------------------|            |
A|--/5--8~---5--8\--3--6~-|            |
E|------------------------|            |
                                       |       
G|---------------------------------|   |       
D|---------------------------------|   |         
A|------------------------1-----1--|   |  x2
E|--1h3--3-3-3---3-3-3-3-----3-----|   |
                                       |
G|---------------------|               |
D|---------------------|               | 
A|---------------------|               |
E|--1h3--3-3-3---1-3\--|               |


[Chorus 1]

G|---------------------------------|
D|---------------------------------|
A|---------------------------------|
E|--10~--8~--6~--3~----10~--6~--3~-| x2


[Verse 2]

G|-------------------------|
D|-------------------------|
A|----------1-1s3~---3--1--|
E|--3~---3-----------------|

G|---------------------------------|
D|---------------------------------|
A|------------------------1-----1--|
E|--1h3--3-3-3---3-3-3-3-----3-----| x2

G|-------------------------|
D|-------------------------|
A|--------------1s3--3--1--|
E|--3~---3--1--------------|

G|---------------------------------|
D|---------------------------------|
A|------------------------1-----1--|
E|--1h3--3-3-3---3-3-3-3-----3-----|

G|---------------------------------|
D|---------------------------------|
A|------------------------1--------|
E|--1h3--3-3-3---3-3-3-3-----3--1--|


[Pre-chorus 2]

G|------------------------|
D|------------------------|
A|--/5--8~---5--8\--3--6~-|
E|------------------------|

G|---------------------------------|
D|---------------------------------|
A|------------------------1-----1--|
E|--1h3--3-3-3---3-3-3-3-----3-----|

G|---------------------|
D|---------------------|
A|---------------------|
E|--1h3--3-3-3---1-3\--|

G|--------------------------|
D|--------------------------|
A|--/5--8~---5--8\----3--6~-|
E|--------------------------|

G|---------------------------------|
D|---------------------------------|
A|------------------------1-----1--|
E|--1h3--3-3-3---3-3-3-3-----3-----|


[Chorus 2]

G|---------------------------------|
D|---------------------------------|
A|---------------------------------|
E|--10~--8~--6~--3~----10~--6~--3~-| x3


[Outro/Guitar Solo]

G|---------------------------------|
D|---------------------------------|
A|---------------------------------|
E|--10~--8~--6~--3~----10~--6~--3~-| x2



*********************************** 

| / Slide up 
| \ Slide down 
| h Hammer-on 
| ~ Vibrato 

***********************************

Suggest correction
Give kudos to tab author, rate the tab!
1 2 3 4 5
comments
print report bad tab
guest
You may want to rate the tab now too:
select rating
Wanna post a correction for this tab? Suggest correction