Oops, an error
Loading. Please wait.

Pregnant tab

7,604 views 6 this week
3 commentsread comments
1 2 3 4 5
1 last vote to show rating
add to favorites
×
Save as Personal and add changes to this tab that will be seen only by you. Learn more ›
×
You can save this tab as Personal to edit and correct it or add notes. All changes will be seen only by you. Learn more »
launch autoscroll
font size
0
reset
how to read this tab
guitar tuner
edit
Autoscroll
slow
fast
+/-
esc
set tempo
stop
Author
seeing as no one has put a tab up for this song, i decided to try and figure a few parts 
myself and i think i got pretty close. it would be great if anyone would help me 
it so here is:)


Song is played in standard tuning.


          <<<<<<<<<<<<<<<<<<<<<>>>>>>>>>>>>>>>>>>>>>
                                 "Pregnant"
                     _____________________________________
                                    Album
                              Robbers & Cowards

Intro:                                          [first heard at 0:00]

e|---5-6---5-8---5-6---5-8---5-6---5-8---5-6---5-8---5-6----6-5-3-----------|
B|---5-5---5-5---5-5---5-5---5-5---5-5---5-5---5-5---5-5----5-5-5-----------|
G|---5-5---5-5---5-5---5-5---5-5---5-5---5-5---5-5---5-5----5-5-5-----------|
D|--------------------------------------------------------------------------|
A|--------------------------------------------------------------------------|
E|--------------------------------------------------------------------------|



Verse/Chorus:


play this around 14 - 16 times with a few variations in-between.
                                                                 e|6-5-3--
i think a few times he plays the 5h6 5 8 part and also plays the B|5-5-5 part
                                                                 G|5-5-5--
he switches between those two parts a few times so listen.

     V  V ^ V ^  V ^ V ^  V ^
e|---5--5-5-5-5--5-5-5-5--5-5--5h6-5----------------------------------------|
B|---5--5-5-5-5--5-5-5-5--5-5--------8--------------------------------------|
G|---5--5-5-5-5--5-5-5-5--5-5-----------------------------------------------|
D|---7--7-7-7-7--7-7-7-7--7-7-----------------------------------------------|
A|---8--8-8-8-8--8-8-8-8--8-8-----------------------------------------------|
E|--------------------------------------------------------------------------|

V = downstrum
^ = upstroke
h = hammer on (example: 5 hammer on 6)

Verse/Chorus Part 2:

and then play this about 7 times or so

e|---8----8--8--8-----------------------------------------------------------|
B|---8----8--8--8-----------------------------------------------------------|
G|---9----9--9--9-----------------------------------------------------------|
D|--10---10-10-10-----------------------------------------------------------|
A|--10---10-10-10-----------------------------------------------------------|
E|---8----8--8--8-----------------------------------------------------------|


and then play,


Interlude:


e|---------------------------------------------6-5-3------------------------|
B|---------------------------------------------5-5-5------------------------|
G|---2-2-2-2-2-2-2-2-2-2-2-2-2-2-2-2-2-2-2-2---5-5-5------------------------|
D|---3-3-3-3-3-3-3-3-3-3-3-3-3-3-3-3-3-3-3-3--------------------------------|
A|--------------------------------------------------------------------------|
E|--------------------------------------------------------------------------|


and then back to the verse/chorus.


>>>>>>>>>>>>>>>>>>>>>>>>>>>>>>>SONG STRUCTURE<<<<<<<<<<<<<<<<<<<<<<<<<<<<<<<<


Intro
Verse/Chorus x14-16
Verse/Chorus Part 2 x7 times or so
Interlude
Verse/Chorus x9-10 or so
Verse/Chorus Part 2 x8
Interlude
Verse/Chorus x5-7 times

finally play the G|--2-- part till the rest of the song, don't play the other
                 D|--3--
part of the interlude.

there you have it, i just figured this out tonight in only an hour or two. questions, 
rate feel free.
metroid2cool@yahoo.com
:)

            
            
Suggest correction
Creating personal tab
Creating personal tab
You can edit any tab online and save it as your Personal.

You can edit, replace or remove any tab part or add personal notes – all changes will be seen only by you.

Personal tabs can be accessed anytime from any device, even offline.
Learn more »
Give kudos to tab author, rate the tab!
1 2 3 4 5
comments
print report bad tab
3 comments total.
0 reply
fakegrapes 120 Dec 05, 2007 05:06 AM

hmm. why does it look like this? i used the -function.

0 reply
inoino3 41 Dec 11, 2007 04:32 PM

e|---5--5-5-5-5--5-5-5-5--5-5--6-5-5-----|
B|---6--6-6-6-6--6-6-6-6--6-6--5-5-8-----|
G|---5--5-5-5-5--5-5-5-5--5-5--5
-5-5-----|
D|---7--7-7-7-7--7-7-7-7--7-7------------|
A|---8--8-8-8-8--8-8-8-8--8-8------------|
E|------------------
---------------------|

hope this fixed it

+1 reply
stef_veenhof 83 Oct 02, 2009 03:15 PM

I just put a capo on the 5th fret and translated this tab to it. It makes it a lot easier.

Just play a C chord for the verse (with the variations off course). And also play a C chord for the interlude.

The chorus is a barre G.

All of this is relative to the capo. Makes is alot easier and less stressful for my (bad) left hand.

guest
You may want to rate the tab now too:
select rating
Wanna post a correction for this tab? Suggest correction