Oops, an error
Loading. Please wait.

Horizon Fire chords

274 views 1 this week
no commentswrite comment
1 2 3 4 5
2 more votes to show rating
add to favorites
×
Save as Personal and add changes to this tab that will be seen only by you. Learn more ›
×
You can save this tab as Personal to edit and correct it or add notes. All changes will be seen only by you. Learn more »
launch autoscroll
font size
0
reset
transpose
0
reset
display chords
guitar tuner
edit
Autoscroll
slow
fast
+/-
esc
set tempo
stop
Author
Strumming
There is no strumming pattern for this song yet. and get +5 IQ
Horizon Fire
By Cold Weather Company
Album: Somewhere New (2015)


[Intro] 

(Finger picked D chord)

e|---------------------------------------------------------------------------| 
B|---------------------------------------------------------------------------|
G|---------------------------------------------------------------------------|  X1
D|---------------------------------------------------------------------------|
A|-5-5-5-5-5-5-5-5-5-5-5-5-5-5-5-5-5-5-5-5-5-5-5-5-5-5-5-5-5-----------------| (single D note picked)
E|---------------------------------------------------------------------------|

e|---------------------------------------------------------------------------| 
B|---------------------------------------------------------------------------|
G|---------------------------2/4\2---2---------------------------------------|  X4
D|---2-2h4-4-4-4-4-4-4-4-4-4-------4---4-2---2-------------------------------|
A|-5---------------------------------------5---5-5-5-5-5-5-5-5-5-5-5-5-------| 
E|---------------------------------------------------------------------------|

e|---------------------------------------------------------------------------|
B|---------------------------------------------------------------------------|
G|--7--9--11-----16--14--11--14--11--9---7---9---7---------------------------|  X4
D|--x--x--x------x---x---x---x---x---x---x---x---x---------------------------|
A|--5--7--9------14--12--9---12--9---7---5---7---5---------------------------|
E|---------------------------------------------------------------------------|


[Verse]

Bm
City blues and forest greens
G                                     D
Fearless nights along the stream with you
Bm
Horizon fire, lay with me
G                               D             Bm   G   D
Will it stay, oh will it all be true?

Bm
Western sky, illuminate
    G                                          D
The graves of those who sealed their fate with love
Bm
Shallow valley, resonate
      G                         D
While sunlight slowly radiates above
    A             G             D             Bm
To cast away, so far away from all we could become
         E           F#m G         D
Provided I hold back my lies, I'll find you


[Chorus]

Bm     G                          D
Oh.........faded footsteps on the pavement               
I saw you, I saw you
Bm     G                          D
Oh.........faded footsteps on the pavement               
I saw you, I saw you
Bm     G                          D
Oh.........faded footsteps on the pavement               
I saw you, I saw you
Bm     G                          D
Oh.........faded footsteps on the pavement               
I saw you, I saw you



[Bridge]  
                                             
A       G      D
I don't know myself now                                               
A       G      D
I don't know myself

A       G      D
I don't know myself now                                               
A       G      D
I don't know myself

A       G      D
I don't know myself now                                               
A       G      D
I don't know myself

A       G      D
I don't know myself now                                               
A       G      D
I don't know myself



[Chorus]

Bm    G                           D
Oh.........faded footsteps on the pavement              
I saw you, I saw you
Bm    G                           D
Oh.........faded footsteps on the pavement              
I saw you, I saw you
Bm    G                           D
Oh.........faded footsteps on the pavement              
I saw you, I saw you
Bm    G                           D
Oh.........faded footsteps on the pavement              
I saw you, I saw you


[Outro]

Bm                             G                              D
Take my hand and walk with me, I will show you all to see, my love
Bm                              G                          D
Horizon fire, lay with me while sunlight slowly radiates above


[Ending]

Bm   G   A   D    X4          
          


************************************
| x   Dead note
| h   Hammer-on
| /   Slide up
| \   Slide down
************************************

            
            
Suggest correction
Creating personal tab
Creating personal tab
You can edit any tab online and save it as your Personal.

You can edit, replace or remove any tab part or add personal notes – all changes will be seen only by you.

Personal tabs can be accessed anytime from any device, even offline.
Learn more »
Give kudos to tab author, rate the tab!
1 2 3 4 5
comments
print report bad tab
guest
You may want to rate the tab now too:
select rating
Wanna post a correction for this tab? Suggest correction