Oops, an error
Loading. Please wait.

A Head Full Of Dreams bass

version 2
version 2

Whole song

2,740 views 15 this week
no commentswrite comment
1 2 3 4 5
x 6
add to favorites
×
Save as Personal and add changes to this tab that will be seen only by you. Learn more ›
×
You can save this tab as Personal to edit and correct it or add notes. All changes will be seen only by you. Learn more »
launch autoscroll
font size
0
reset
guitar tuner
edit
Autoscroll
slow
fast
+/-
esc
set tempo
stop
Author
Difficulty
-------------------------------------------------------------------------------
                             A Head Full Of Dreams - Coldplay
-------------------------------------------------------------------------------
Tabbed by: Andrew P
Tuning: Standard

The tricky thing with this one is the timing of the main riff but once you've got that you're good
Feedback always appreciated

~~~ means a part without bass

Intro(Fades in from 0.16):

G|------------------------|
D|------------------------|
A|------------------------|
E|--------------------0h5h|

G|------------------------|------------------------|------------------------|------------------------|
D|------------------------|------------------------|------------------------|------------------------|
A|------------------------|------------------------|------------------------|------------------------|
E|7----7---0-5--7-----0h5h|7----7---0-5--7-----0h5h|7----7---0-5--7-----0h5h|7----7---0-5--7-----0h5h|

G|------------------------|------------------------|------------------------|------------------------|
D|------------------------|------------------------|------------------------|------------------------|
A|------------------------|------------------------|------------------------|------------------------|
E|7----7---0-5--7-----0h5h|7----7---0-5--7-----0h7-|5-----5-----5-----5/----|12----12----12----12----|

Verse(0.32):
G|------------------------|
D|------------------------|
A|------------------------| x4
E|7----7---0-5--7-----0h5h|
                                                                                                 
G|------------------------|------------------------|------------------------|------------------------|
D|------------------------|------------------------|------------------------|----------------7-9-----|
A|------------------------|------------------------|------------------------|------------------------|
E|7----7---0-5--7-----0h5h|7----7---0-5--7-----0h5h|7----7---0-5--7-----0h5h|7----7---0-5--7-----0h5h|

G|------------------------|
D|------------------------|
A|------------------------| x4
E|7----7---0-5--7-----0h5h|
                                   
G|------------------------|------------------------|------------------------|------------------------|
D|------------------------|------------------------|------------------------|----------------7-9-----|
A|------------------------|------------------------|------------------------|------------------------|
E|7----7---0-5--7-----0h5h|7----7---0-5--7-----0h5h|7----7---0-5--7-----0h5h|7----7---0-5--7-----0h5h|
                      
G|------------------------|
D|------------------------|
A|------------------------| x4
E|7----7---0-5--7-----0h5h|
                                   
G|------------------------|------------------------|------------------------|------------------------|
D|------------------------|------------------------|------------------------|------------------------|
A|------------------------|------------------------|------------------------|------------------------|
E|7----7---0-5--7-----0h5h|7----7---0-5--7-----0h5-|------------------------|------------------------|

Chorus(1.19):
G|------------------------|
D|------------------------|
A|------------------------| x4
E|7----7---0-5--7-----0h5h|
                                 
G|------------------------|------------------------|------------------------|------------------------|
D|------------------------|------------------------|------------------------|----------------7-9-----|
A|------------------------|------------------------|------------------------|------------------------|
E|7----7---0-5--7-----0h5h|7----7---0-5--7-----0h5h|7----7---0-5--7-----0h5h|7----7---0-5--7-----0h5h|

G|------------------------|
D|------------------------|
A|------------------------| x4
E|7----7---0-5--7-----0h5h|
                                 
G|------------------------|------------------------|------------------------|------------------------|
D|------------------------|------------------------|------------------------|------------------------|
A|------------------------|------------------------|------------------------|------------------------|
E|7----7---0-5--7-----0h5h|7----7---0-5--7-----0h7-|5-----5-----5-----5/----|12----12----12----12----|

G|------------------------|
D|------------------------|
A|------------------------|
E|7-----------------------|

~~~

Bridge Part 1(2.21):
G|------------------------|------------------------|------------------------|------------------------|
D|------------------------|------------------------|------------------------|------------------------|
A|------------------------|------------------------|------------------------|------------------------|
E|7-----------------------|------------------------|------------------------|------------------------|

G|------------------------|------------------------|------------------------|------------------------|
D|------------------------|------------------------|------------------------|----------------9-------|
A|------------------------|------------------------|6-----------------------|--------------------9---|
E|2-----------------------|------------------------|------------------------|0-----------------------|

G|------------------------|------------------------|------------------------|------------------------|
D|------------------------|------------------------|------------------------|------------------------|
A|------------------------|------------------------|------------------------|------------------------|
E|7-----------------------|------------------------|------------------------|------------------------|

G|------------------------|------------------------|------------------------|------------------------|
D|------------------------|------------------------|------------------------|------------------------|
A|------------------------|------------------------|6-----------------------|------------------------|
E|2-----------------------|------------------------|------------------------|0-----------------------|

Ending(2.52):
G|------------------------|------------------------|------------------------|------------------------|
D|------------------------|------------------------|------------------------|------------------------|
A|------------------------|------------------------|------------------------|------------------------|
E|7-----7-----7-----7-----|7-----7-----7-----7\----|0-----0-----0-----0-----|0-----0-----0-----0-----|

G|------------------------|------------------------|------------------------|------------------------|
D|------------------------|----------------4-------|------------------------|------------------------|
A|------------------------|------------------2h4/--|6-----6-----6-----6/----|7-----7-----7-----7-----|
E|2-----2-----2-----2-----|2-----2-----2-----------|------------------------|------------------------|

G|------------------------|------------------------|------------------------|------------------------|
D|------------------------|------------------------|------------------------|------------------------|
A|------------------------|------------------------|------------------------|------------------------|
E|7-----7-----7-----7-----|7-----7-----7-----7\----|0-----0-----0-----0-----|0-----0-----0-----0-----|

G|------------------------|------------------------|------------------------|------------------------|
D|------------------------|----------------4-------|------------------------|------------------------|
A|------------------------|------------------2h4\--|0-----0-----0-----0-----|------------------------|
E|2-----2-----2-----2-----|2-----2-----2-----------|------------------------|0-----0-----0-----0h2---|

G|------------------------|
D|------------------------|
A|2-----------------------|
E|------------------------|

| /  slide up
| \  slide down
| h  hammer-on
| p  pull-off
| ~  vibrato
| +  harmonic
| x  Mute note
===============================================================================

            
            
Suggest correction
Creating personal tab
Creating personal tab
You can edit any tab online and save it as your Personal.

You can edit, replace or remove any tab part or add personal notes – all changes will be seen only by you.

Personal tabs can be accessed anytime from any device, even offline.
Learn more »
comments
print report bad tab
guest
You may want to rate the tab now too:
select rating
Wanna post a correction for this tab? Suggest correction