Oops, an error
Loading. Please wait.

A Rush Of Blood To The Head Bass Tab

version 1
version 1

Album

Whole song

Interactive

15,127 views 6 this week
1 commentread comment
1 2 3 4 5
x 7
add to favorites
launch autoscroll
font size
0
reset
guitar tuner
Autoscroll
slow
fast
+/-
esc
set tempo
stop
Help us to improve Ultimate-Guitar.com Take our survey!
×
Author
 Coldplay
 A Rush of Blood to the Head

 1.Politik(Chate)
 2.In My Place(Chate)
 3.God Put a Smile Upon Your Face(Hound_Of_Winter)
 4.The Scientist(BassPlayaNeener)
 5.Clocks(Jason Lapointe)
 6.Daylight(Chate)
 7.Green Eyes(Chate)
 8.Warning Sign(WhiteShade)
 9.A Whisper(Chate)
 10.A Rush of Blood to the Head(Athanathios)
 11.Amsterdam(Chate)

---------------------------------------------------------------------

 1.Politik(Chate)

 Intro
  C7                                  Fm
G|-----------------|-----------------|-----------------|-----------------|
D|-----------------|-----------------|-3-3-3-3-3-3-3-3-|-3-3-3-3-3-3-3-3-| X 2
A|-3-3-3-3-3-3-3-3-|-3-3-3-3-3-3-3-3-|-----------------|-----------------|
E|-----------------|-----------------|-----------------|-----------------|

No bass in verse 1

Chorus (Chorus1 X 3, Chorus2 X 2)
  C7                                  Fm
G|-----------------|-----------------|-----------------|-----------------|
D|-----------------|-----------------|-3-3-3-3-3-3-3-3-|-3-3-3-3-3-3-3-3-|
A|-3-3-3-3-3-3-3-3-|-3-3-3-3-3-3-3-3-|-----------------|-----------------|
E|-----------------|-----------------|-----------------|-----------------|

Verse 2 (comes in after 4 bars)
  C7                                  Fm
G|-----------------|-----------------|-----------------|-----------------|
D|--/10------------|-----------------|-3---------------|----6---6--5--3--|
A|-3---------------|-----------------|-----------------|-----------------|
E|-----------------|-----------------|-----------------|-----------------|
  C7                                  Fm
G|-----------------|-----------------|-----------------|-----------------|
D|-10--------------|-----------------|-3---------------|----6---6--5--3--| X 2
A|-----------------|-----------------|-----------------|-----------------|
E|-----------------|-----------------|-----------------|-----------------|

Bridge
  C7
G|--------|--------|
D|--------|--------|
A|-3------|--------|
E|--------|--------|
  Fm                Db6               Ab                Ebsus4   Eb
G|--------|--------|--------|--------|--------|--------|--------|--------|
D|-3------|--------|--------|--------|-6------|--------|--------|--------| X 3
A|--------|--------|-4------|--------|--------|--------|-6------|--------|
E|--------|--------|--------|--------|--------|--------|--------|--------|

Outro
  Fm                                  Db6
G|-----------------|-----------------|-----------------|-----------------|
D|-3-3-3-3-3-3-3-3-|-3-3-3-3-3-3-3-3-|-----------------|-----------------|
A|-----------------|-----------------|-4-4-4-4-4-4-4-4-|-4-4-4-4-4-4-4-4-|
E|-----------------|-----------------|-----------------|-----------------|
  Ab                                  Ebsus4            Eb
G|-----------------|-----------------|-----------------|-----------------|
D|-----------------|-----------------|-----------------|-----------------|
A|-----------------|-----------------|-6-6-6-6-6-6-6-6-|-6-6-6-6-6-6-6-6-|
E|-4-4-4-4-4-4-4-4-|-4-4-4-4-4-4-4-4-|-----------------|-----------------|
  Fm                                  Db6
G|-----------------|-----------------|-----------------|-----------------|
D|-----------------|-----------------|-----------------|-----------------|
A|-----------------|-----------------|-4-4-4-4-4-4-4-4-|-4-4-4-4-4-4-4-4-|
E|-1-1-1-1-1-1-1-1-|-1-1-1-1-1-1-1-1-|-----------------|-----------------|
  Ab                                  Ebsus4            Eb
G|-----------------|-----------------|-----------------|-----------------|
D|-----------------|-----------------|-----------------|-----------------|
A|-----------------|-----------------|-6-6-6-6-6-6-6-6-|-6-6-6-6-6-6-6-6-|
E|-4-4-4-4-4-4-4-4-|-4-4-4-4-4-4-4-4-|-----------------|-----------------|
  Fm
G|-----------------|
D|-3-(hold)--------|
A|-----------------|
E|-----------------|

===============================================================================

 2.In My Place(Chate)

 Intro + Verse + Bridge
   A       A/G#      C#m      E        A       F#m       C#m      E
G|-----------------|-----------------|-----------------|-----------------|
D|-----------------|-----------------|-----------------|-----------------|
A|-----?-----------|-4--4--4-/7-7--7-|-----------------|-4--4--4-/7-7--7-|
E|-5--5--5--4-4--4-|-----------------|-5--5--5--2-2--2-|-----------------|

Chorus
  D                  A        E/G#     D                 A        E/G#
G|-----------------|-----------------|-----------------|-----------------|
D|-----------------|-7---9--7--6-----|-----------------|-7---9--7--6-----|
A|-5---------------|--------------7--|-5---------------|--------------7--|
E|-----------------|-----------------|-----------------|-----------------|
  D                  A        E/G#     D                 E          
G|-----------------|-----------------|-----------------|-----------------|
D|-----------------|-7---9--7--6-----|-----------------|-----------------|
A|-5---------------|--------------7--|-5-------------5-|-7---------------|
E|-----------------|-----------------|-------------5---|-----------------|


Guitar Solo + Outro
(Quiet bass or violins)
   A      A/G#      C#m      E         A      F#m       Cam      E
G|-----------------|-----------------|-----------------|-----------------|
D|-7------6--------|-----------------|-7------4--------|-----------------|
A|-----------------|-4-------7-------|-----------------|-4-------7-------|
E|-----------------|-----------------|-----------------|-----------------|

End note
   A
G|-----------------|
D|-----------------|
A|-0---------------|
E|-----------------|


===============================================================================

 3.God Put a Smile Upon Your Face(Hound_Of_Winter)

  Verse:
G|-------------------||
D|-11---------11----.||
A|----------9-----9-.||
E|-----9-9-----------||

Chorus:
   Amaj7                               E6                F#add9
G|---------------|-----------------|-----------------|-----------------|
D|---------------|-----------------|-----------------|-----------------|
A|---------------|-----------------|---7-7-7-7-7-7-7-|---9-9-9-9-9-9-9-|
E|-5--5--5-5-5-5-|---5-5-5-5-5-5-5-|-----------------|-----------------|
                                                      __________________
   Amaj7                               E6            | (1st Time)
G|---------------|-----------------|-----------------||-----------------|
D|-7--7--7-7-7-7-|---7-7-7-7-7-7-7-|-----------------||-----------------|
A|---------------|-----------------|---7-7-7-7-7-7-7-||---9-9-9-9-9-9-9-|
E|---------------|-----------------|-----------------||-----------------|
  _____________
 | (2 time)
G||-11--9------|
D||-------11-9-|
A||------------|
E||------------|

===============================================================================

 4.The Scientist(BassPlayaNeener)

 No Bass until Verse 2 starts

 Verse 2 (2:18)
  Dm                Bb                F                 Fsus2
G|-----------------|-----------------|-----------------|-----------------|
D|-0-0-0-0-0-0-0-0-|-----------------|-3-3-3-3-3-3-3-3-|-3-3-3-3-3-3-3-3-|3x
A|-----------------|-1-1-1-1-1-1-1-1-|-----------------|-----------------|
E|-----------------|-----------------|-----------------|-----------------|
  Dm                Bb                F                 Fsus2
G|-----------------|-----------------|-----------------|-----------------|
D|-0-0-0-0-0-0-0-0-|-----------------|-3-3-3-3-3-3-3-3-|-3-3-3-3-2-2-2-2-|
A|-----------------|-1-1-1-1-1-1-1-1-|-----------------|-----------------|
E|-----------------|-----------------|-----------------|-----------------|

Chorus
  Bb                                  F                 Fsus2
G|-----------------|-----------------|-----------------|-----------------|
D|-----------------|-----------------|-3-3-3-3-3-3-3-3-|-3-3-3-3-3-3-3-3-|2x
A|-1-1-1-1-1-1-1-1-|-1-1-1-1-1-1-1-1-|-----------------|-----------------|
E|-----------------|-----------------|-----------------|-----------------|
  C
G|-----------------|-----------------|
D|-----------------|-----------------|
A|-3-3-3-3-3-3-3-3-|-3---------------|
E|-----------------|-----------------|

Bridge
  F                 Bb                F
G|-----------------|-----------------|-----------------|-----------------|
D|-3-3-3-3-3-3-3-3-|-----------------|-3-3-3-3-3-3-3-3-|-3-3-3-3-3-3-3-3-|
A|-----------------|-1-1-1-1-1-1-1-1-|-----------------|-----------------|
E|-----------------|-----------------|-----------------|-----------------|
  Dm                Bb                F
G|-----------------|-----------------|-----------------|-----------------|
D|-0-0-0-0-0-0-0-0-|-----------------|-3-3-3-3-3-3-3-3-|-3-3-3-3-3-3-3-3-|4x
A|-----------------|-1-1-1-1-1-1-1-1-|-----------------|-----------------|
E|-----------------|-----------------|-----------------|-----------------|

Outro
  Dm                Bb                F
G|-----------------|-----------------|-----------------|
D|-0---------------|-----------------|-3---------------|
A|-----------------|-1---------------|-----------------|
E|-----------------|-----------------|-----------------|

===============================================================================

 5.Clocks(Jason Lapointe)

 Part A
G|-------------------|
D|-------------------|
A|-6(x8)-------8(x8)-|
E|------6(x16)-------|

Part B
G|-------------------------------5---------------------------------|
D|-------------6h8-8-8-8-8-8-8-8---8-8-8-6-6-6-5-5-6-6-6-6-6-6-6-5-|
A|-6-6-6-6-6-6-----------------------------------------------------|
E|-----------------------------------------------------------------|

Part C                 last bars of C
G|--------------------|---------------|
D|--------------------|--------4(x16)-|
A|--------4(x8)-------|---------------|
E|-2(x16)-------4(x8)-|-2(x16)--------|

Intro - Piano only - 2 measures
Part A x8
Part B x2
Part A x8
Part B x4
Part C x3, then last bars
Piano only - 2 measures
Part B x8

===============================================================================

 6.Daylight(Chate)

  Intro + pre verse
  E6                G(#11)            F#
G|-----------------|-----------------|-----------------|-----------------|
D|-----------------|-----------------|-----------------|-----------------| X 2
A|-7---7----7---7--|-10--10---10--10-|-9---9----9---9--|-9---9-----9---9-|
E|-----------------|-----------------|-----------------|-----------------|

Verse 1 (comes in after 16 bars)
  E6                G(#11)            F#
G|---------9--9----|---------9--9----|---------9--9----|---------9--9----|
D|--------------9--|--------------9--|--------------9--|--------------9--| X 4
A|-7---7-----------|-10?-10----------|-9---9-----------|-9---9-----------|
E|-----------------|-----------------|-----------------|-----------------|

Chorus
  A                 Dmaj7             F#                A
G|--------|--------|--------|--------|--------|--------|--------|--------|
D|--------|--------|--------|--------|-4-4--4-|-4-4--4-|-7-7--7-|-7-7--7-|
A|-0-0--0-|-0-0--0-|-5-5--5-|-5-5--5-|--------|--------|--------|--------|
E|--------|--------|--------|--------|--------|--------|--------|--------|
  A                 Dmaj7             F#                A
G|--------|--------|--------|--------|--------|--------|--------|--------|
D|--------|--------|--------|--------|-4-4--4-|-4-4--4-|--------|--------|
A|-0-0--0-|-0-0--0-|-5-5--5-|-5-5--5-|--------|--------|-0-0--0-|-0-0--0-|
E|--------|--------|--------|--------|--------|--------|--------|--------|
  A                 Dmaj7             F#
G|--------|--------|--------|--------|-----------------|
D|-7-7--7-|-7-7--7-|--------|--------|-4-(hold)--------|
A|--------|--------|-5-5--5-|-5-5--5-|-----------------|
E|--------|--------|--------|--------|-----------------|


Verse 2 (comes in after 8 bars)
  E6                G(#11)            F#
G|---------9--9----|---------9--9----|---------9--9----|---------9--9----|
D|--------------9--|--------------9--|--------------9--|--------------9--| X 2
A|-7---7-----------|-10?-10----------|-9---9-----------|-9---9-----------|
E|-----------------|-----------------|-----------------|-----------------|
  E6                G(#11)            F#
G|---------9--9----|---------9--9----|--------11--11---|--------11--11---|
D|--------------9--|--------------9--|--------------11-|--------------11-| X 4
A|-7---7-----------|-10?-10----------|-9---9-----------|-9---9-----------|
E|-----------------|-----------------|-----------------|-----------------|

Outro
  E6                G(#11)            F#
G|-9---------------|-----------------|-11--------------|-----------------|
D|----11-9-11-9----|-----------------|----11-9-11-9----|-----------------|  TO 
A|---------------7-|-7---9---9---9---|---------------7-|-7---9---9---9---| FADE
E|-----------------|-----------------|-----------------|-----------------|

===============================================================================

 7.Green Eyes(Chate)

  Middle (2:06) (?The Green Eyes, you?re the one that...?)
  Bm                Dsus2             A                 E/G#
G|-----------------|-----------------|-----------------|-----------------|
D|-----------------|----7-----7--7---|-7-7-----7-7---7-|-6-6-----6-6-----| X 2
A|----9-----9--9---|-5-----5-------5-|-----7-7-----7---|-----7-7-----7---|
E|-7-----7-------7-|-----------------|-----------------|-----------------|

Chorus (?Coz I came here with a load...?)
  Bm                Dsus2             A        G        Dsus2
G|-----------------|-----------------|-----------------|-----------------|
D|-----------------|----7-----7--7---|-7-7-----5-5---5-|----7------------| X 2
A|----9-----9--9---|-5-----5-------5-|-----7-7-----5---|-5-----5---5--4--|
E|-7-----7-------7-|-----------------|-----------------|-----------------|
  
Outro (?The Green Eyes, the Green Eyes, oh-wo-oh-oh...?)
  Bm                                  A                 Bm
G|-----------------|-----------------|-----------------|-----------------|
D|-----------------|-----------------|-----------------|-----------------|
A|-----------------|-----------------|-----------------|-----------------|
E|-7-------7----7--|-7-------7----7--|-5-------5----5--|-7--------7----7-|

G|-----------------|
D|-----------------|
A|-----------------|
E|-7-------7----7--|

End
  A      E/G#       Bm (X 2)
G|-----------------|
D|-----------------|
A|-----------------|
E|-5---------------|

===============================================================================

 8.Warning Sign(WhiteShade)

 Intro x4
			 
G-----------------------| 
D-----------------------| 
A-----6-------13--8-----|   
E--4--------------------| 

...

Verse x4
			 	
G-----------------------| 
D-----------------------|  
A-----6-------13--8-----|  
E--4--------------------| 

Intro (x1)
	   
G------------| 
D------------| 
A---8--------|  
E------------| 
	   
Chorus x2
	   					       
G--------------------------------------------------|  	 
D--------------------------------------------------|		 
A--6------6---66-----6---10-----10---1010-----10---|	
E--------------------------------------------------|	
							 
G----------------------------------------------------|	
D----------------------------------------------------|	
A--13-----13---1313----13---12-----12---1212----12---|	
E----------------------------------------------------|  

Verse x8
				
G-----------------------|  
D-----------------------|  
A-----6-------13--8-----|  
E--4--------------------| 

Intro Chorus (x1)
	   
G------------|  
D------------|
A---8--------| 
E------------| 

Chorus x2
	   					       
G--------------------------------------------------|      
D--------------------------------------------------|		 
A---6------6---66----6---10-----10---1010-----10---|	
E--------------------------------------------------|	
							 
G----------------------------------------------------|	
D----------------------------------------------------|	
A--13-----13---1313----13---12-----12---1212----12---|	
E----------------------------------------------------|  

Bridge (x1)

G----------------------------------------------------|	
D----------------------------------------------------|	
A--11-----11---1111----11---10-----10---1010----10---|	
E----------------------------------------------------| 

G----------------------------------------------------|	
D----------------------------------------------------|	
A--13-----13---1313----13---12-----12---1212----12---|	
E----------------------------------------------------|  
 

G------------------------|	
D------------------------|	
A--12-----12---1212------|	
E------------------------|  

Outro x4
	   				 	       
G---------------------------------------|  	
D---------------------------------------|   	 
A--13-------11-------11-------10--------|  	
E---------------------------------------|

===============================================================================

 9.A Whisper(Chate)

  Main Riff 1 (no lyrics)
  G5
G|-----------------|-----------------|-----------------|-----------------|
D|-----------------|-----------------|-----------------|-----------------|
A|-----------------|-----------------|-----------------|-----------------|
E|-3-3--3-3--3-3-3-|-3-3--3-3--3-3-3-|-3-3--3-3--3-3-3-|-3-3--3-3--3-3-3-|

Main Riff 2 (?a whisper, whisper...?)
  Ebmaj7                              G5
G|-----------------|-----------------|-----------------|-----------------|
D|-----------------|-----------------|-----------------|-----------------|
A|-6-6--6-6--6-6-6-|-6-6--6-6--6-6-6-|-----------------|-----------------|
E|-----------------|-----------------|-3-3--3-3--3-3-3-|-3-3--3-3--3-3-3-|

Riff 3 (?I hear the sound of the ticking of clocks...?)
  Csus4    C        Csus4    C        Csus4    C        Csus4    Csus2
G|-----------------|-----------------|-----------------|-----------------|
D|-----------------|-----------------|-----------------|-----------------|
A|-----------------|-----------------|-----------------|-----------------|
E|-8--8--8-8--8--8-|-8--8--8-8--8--8-|-8--8--8-8--8--8-|-8--8--8-8--8--8-|
  G5
G|-----------------|-----------------|-----------------|-----------------|
D|-------/15-------|-----------------|-------/15-------|-----------------|
A|-----------------|-----------------|-----------------|-----------------|
E|-3---------------|-----------------|-3---------------|-----------------|

Riff 4 (?night turns to day, when I still had these questions...?)
  Dm                Bb                C5
G|-----------------|-----------------|-----------------|-----------------|
D|---------------7-|-8--8--8-8--8--8-|-----------------|-----------------| X 3
A|-5?-5--5--5--8---|-----------------|-3--3--3-3--3--3-|-3--3--3-3--3--3-|
E|-----------------|-----------------|-----------------|-----------------|
  Dm                Bb                C5                         C
G|-----------------|-----------------|-----------------|-----------------|
D|---------------7-|-8--8--8-8--8--8-|-----------------|---------8--8--8-|
A|-5?-5--5--5--8---|-----------------|-3--3--3-3--3--3-|-3--3--3---------|
E|-----------------|-----------------|-----------------|-----------------|
  G5                                   Ebmaj7
G|-----------------|-----------------|
D|-5---------------|-----------------| (Straight into Main Riff 2)
A|-----------------|-----------------|
E|-----------------|-----------------|

Outro
  Bb       C5       G5                Bb       C5       G5
G|-----------------|-----------------|-----------------|-----------------|
D|-----------------|-----------------|-----------------|-----------------|  TO
A|-----------------|-----------------|-----------------|-----------------| FADE
E|-6-------8-------|-3---------------|-6-------8-------|-3---------------|

===============================================================================
 
 10.A Rush of Blood to the Head(Athanathios)

 Verses: Bass Is Tacit

   Pre Choruses ("So I"m gonna buy a gun...")
G|-----------|----------|----------|------------|
D|-----------|----------|----------|------------|
A|-0---00-0--|-3---03-3-|----------|-0---0-00-0-|
E|-----------|----------|-0---00-0-|------------|

   Choruses
G|----------|----------|----------|----------|----------|
D|*--------*|*--------*|*--------*|----------|----------|
A|*--------*|*55555555*|*--------*|-55555555-|-11111111-|
E|-11111111-|----------|-11111111-|----------|----------|

G|----------|----------|----------|
D|*--------*|----------|----------| Back to Pre Chorus 
A|*--------*|-55555555-|-11111111-| Progression
E|-11111111-|----------|----------| 

===============================================================================

 11.Amsterdam(Chate)


 Outro (3:58) (4x with drums, 2x without drums)
  Fadd9             Abmaj7            Eb                Bb
G|-----------------|-----------------|-----------------|-----------------|
D|-----------------|-----------------|-----------------|-----------------| X 6
A|-6h8-8--8-6------|-----------------|-6---6------6-8--|-----------------|
E|------------8-6--|-4---4------4-6--|----------6------|-6---------------|
	
===============================================================================

Suggest correction
comments
print report bad tab
1 comment total.
-1 reply
AlexD97 579 Oct 02, 2010 10:56 AM

You know, it's rather unnecessary to put all of the tabs together into one, if they aren't all made by you.

guest
You may want to rate the tab now too:
select rating
Wanna post a correction for this tab? Suggest correction