Oops, an error
Loading. Please wait.

A Sky Full Of Stars Tab

version 1
version 1

Intro

Whole song

Interactive

5,057 views 3 this week
no commentswrite comment
1 2 3 4 5
accurate
x 4
add to favorites
launch autoscroll
font size
0
reset
how to read this tab
guitar tuner
Autoscroll
slow
fast
+/-
esc
set tempo
stop
Help us to improve Ultimate-Guitar.com Take our survey!
×
Difficulty
advanced
Standard Tuning

Intro.

E: 2---2---2-----4--4-----6---6---6------6------6--2---2---2-----2-----2--1---1---1-----2-2----:
A: 2---2---2-----2--2-----4---4---4------4------4--2---2---2-----2-----2--2---2---2-----2-2----:
D: 3---3---3-----X--X-----4---4---4------4------4--3---3---3-----3-----3--1---1---1-----1-1----:    X4 (Or more)
G: 1---1---1-----3--3-----4---4---4------4------4--4---4---4-----4-----4--3---3---3-----3-3----:
B: --------------4--4-----X---X---X------X------X--4---4---4-----4-----4--1---1---1-----1-1----:
E: -----------------------7---7---7------7------7--2---2---2-----2-----2-----------------------:




Intro 2.

E: 2---2---2-----4--4-----7---7---7------7------7--2---2---2-----2-----2--1---1---1-----2-2----:
A: 2---2---2-----2--2-----7---7---7------7------7--2---2---2-----2-----2--2---2---2-----2-2----:
D: 3---3---3-----X--X-----8---8---8------8------8--3---3---3-----3-----3--1---1---1-----1-1----:    X4 (Or more)
G: 1---1---1-----3--3-----9---9---9------9------9--4---4---4-----4-----4--3---3---3-----3-3----:
B: --------------4--4-----9---9---9------9------9--4---4---4-----4-----4--1---1---1-----1-1----:
E: -----------------------7---7---7------7------7--2---2---2-----2-----2-----------------------:




Tab made by: Héctor De la Rocha Carrasco.
Suggest correction
comments
print report bad tab
guest
You may want to rate the tab now too:
select rating
Wanna post a correction for this tab? Suggest correction