Oops, an error
Loading. Please wait.
We have an official Adventure Of A Lifetime tab made by UG professional guitarists. Check out the tab »
×
4,138 views 21 this week
1 commentread comment
1 2 3 4 5
x 10
add to favorites
×
Save as Personal and add changes to this tab that will be seen only by you. Learn more ›
×
You can save this tab as Personal to edit and correct it or add notes. All changes will be seen only by you. Learn more »
launch autoscroll
font size
0
reset
transpose
0
reset
display chords
guitar tuner
backing track
0:00
0:00
edit
Autoscroll
slow
fast
+/-
esc
set tempo
stop
Author
Difficulty
Strumming
There is no strumming pattern for this song yet. and get +5 IQ
the tab is,
first section|played twice.

a|12-7-12-7---7------------------------|
e|----------10---10-8------------------|
c|--------------------9-7-9-7----------|
g|-------------------------------------|

second section|played once.


a|10-7-10-7---7------------------------|
e|----------10---10-8------------------|
c|--------------------9-7-9-7----------|
g|-------------------------------------|

third section|played once.

a|10-7-10-7---7---------------14-15----|
e|----------10---10-8------------------|
c|--------------------9-7-9-7----------|
g|-------------------------------------|
Suggest correction
Creating personal tab
Creating personal tab
You can edit any tab online and save it as your Personal.

You can edit, replace or remove any tab part or add personal notes – all changes will be seen only by you.

Personal tabs can be accessed anytime from any device, even offline.
Learn more »
comments
print report bad tab
1 comment total.
0 reply
coletbatey 10 Apr 17, 2017 03:34 PM

Thx

guest
You may want to rate the tab now too:
select rating
Wanna post a correction for this tab? Suggest correction