Oops, an error
Loading. Please wait.
We have an official Adventure Of A Lifetime tab made by UG professional guitarists. Check out the tab »
×
3,328 views 24 this week
1 commentread comment
1 2 3 4 5
x 4
add to favorites
×
Save as Personal and add changes to this tab that will be seen only by you. Learn more ›
×
You can save this tab as Personal to edit and correct it or add notes. All changes will be seen only by you. Learn more »
launch autoscroll
font size
0
reset
guitar tuner
backing track
0:00
0:00
edit
Autoscroll
slow
fast
+/-
esc
set tempo
stop
Author
Difficulty
ADVENTURE OF A LIFETIME - Coldplay
Tabbed by: ~Technology.
Tuning: Standard EADG

[7 bars rest, then]
  1 e 2 e 3 e 4 e   
G|----------------|
D|----------------|
A|--------7---7---|
E|----------------|

[Chorus and verse]
  1 e 2 e 3 e 4 e 1 e 2 e 3 e 4 e 1 e 2 e 3 e 4 e 1 e 2 e 3 e 4 e    
G|----------------------------------------------------------------|
D|----------------------------------------------------------------|
A|5-5--5--5-----35----------------------------------------3~~~----|
E|-------5----------3--3--3------/5-5--5-05------/5-5--5~~----3~~~| x7

[Muffled part]
  1 e 2 e 3 e 4 e 1 e 2 e 3 e 4 e 1 e 2 e 3 e 4 e 1 e 2 e 3 e 4 e    
G|----------------------------------------------------------------|
D|----------------------------------------------------------------|
A|5-5--5--5-----35----------------------------------------7~~~7~~~|
E|-------5----------3--3--3------/5~~~~~~~~~~~~~~~~~~~~~~~--------|

[Chorus and Verse]
  1 e 2 e 3 e 4 e 1 e 2 e 3 e 4 e 1 e 2 e 3 e 4 e 1 e 2 e 3 e 4 e    
G|----------------------------------------------------------------|
D|----------------------------------------------------------------|
A|5-5--5--5-----35----------------------------------------3~~~----|
E|-------5----------3--3--3------/5-5--5-05------/5-5--5~~----3~~~| x5

[Muffled part]
  1 e 2 e 3 e 4 e 1 e 2 e 3 e 4 e 1 e 2 e 3 e 4 e 1 e 2 e 3 e 4 e    
G|----------------------------------------------------------------|
D|----------------------------------------------------------------|
A|5-5--5--5-----35----------------------------------------7~~~7~~~|
E|-------5----------3--3--3------/5~~~~~~~~~~~~~~~~~~~~~~~--------| 

[Chorus]
  1 e 2 e 3 e 4 e 1 e 2 e 3 e 4 e 1 e 2 e 3 e 4 e 1 e 2 e 3 e 4 e    
G|----------------------------------------------------------------|
D|----------------------------------------------------------------|
A|5-5--5--5-----35----------------------------------------3~~~----|
E|-------5----------3--3--3------/5-5--5-05------/5-5--5~~----3~~~|

  1 e 2 e 3 e 4 e 1 e 2 e 3 e 4 e 1 e 2 e 3 e 4 e 1 e 2 e 3 e 4 e    
G|----------------------------------------------------------------|
D|-----------------------------------------x5-7-------------------|
A|5-5--5--5-----35----------------------------------------3~~~----|
E|-------5----------3--3--3------/5-5--5-05-------5-5055~~----3~~~|

[Bridge]
  1 e 2 e 3 e 4 e 1 e 2 e 3 e 4 e 1 e 2 e 3 e 4 e 1 e 2 e 3 e 4 e    
G|----------------------------------------------------------------|
D|----------------------------------------------------------------|
A|5~~~~~~~~~~~~~~~------------------------------------------------|
E|----------------3~~~~~~~~~~~~~~~5~~~~~~~~~~~~~~~~~~~~~~~3~~~~~~~| x2

  1 e 2 e 3 e 4 e 1 e 2 e 3 e 4 e 1 e 2 e 3 e 4 e 1 e 2 e 3 e 4 e    
G|----------------------------------------------------------------|
D|----------------5~~~~~~~~~2~------------------------------------|
A|5~~~~~~~~~~~~~~~------------3~5~--------------------------------|
E|--------------------------------5~~~~~~~~~~~~~~~~~~~~~~~~~~~~~~~|

  1 e 2 e 3 e 4 e 1 e 2 e 3 e 4 e 1 e 2 e 3 e 4 e 1 e 2 e 3 e 4 e    
G|----------------------------------------------------------------|
D|----------------------------------------------------------------|
A|--------------------------------------------------------7~~~7~~~|
E|----------------------------------------------------------------|

[Chorus and end]
  1 e 2 e 3 e 4 e 1 e 2 e 3 e 4 e 1 e 2 e 3 e 4 e 1 e 2 e 3 e 4 e    
G|----------------------------------------------------------------|
D|----------------------------------------------------------------|
A|5-5--5--5-----35----------------------------------------3~~~----|
E|-------5----------3--3--3------/5-5--5-05------/5-5--5~~----3~~~| x5

  1 e 2 e 3 e 4 e 1 e 2 e 3 e 4 e 1 e 2 e 3 e 4 e 1 e 2 e 3 e 4 e    
G|----------------------------------------------------------------|
D|-----------------------------------------x5-7-------------------|
A|5-5--5--5-----35----------------------------------------3~~~----|
E|-------5----------3--3--3------/5-5--5-05-------5-5055~~----3~~~|

  1 e 2 e 3 e 4 e 1 e 2 e 3 e 4 e 1 e 2 e 3 e 4 e 1 e 2 e 3 e 4 e    
G|----------------------------------------------------------------|
D|----------------------------------------------------------------|
A|5-5--5--5-----35----------------------------------------3~~~----|
E|-------5----------3--3--3------/5-5--5-05------/5-5--5~~----3~~~| x2

************************************

| ~  Vibrato
| /  Slide up
| x  Dead note

************************************

            
            
Suggest correction
Creating personal tab
Creating personal tab
You can edit any tab online and save it as your Personal.

You can edit, replace or remove any tab part or add personal notes – all changes will be seen only by you.

Personal tabs can be accessed anytime from any device, even offline.
Learn more »
comments
print report bad tab
1 comment total.
0 reply
reynoldsec1 10 Feb 06, 2016 06:52 PM

Only one I've seen where the bridge is right; thanks!

guest
You may want to rate the tab now too:
select rating
Wanna post a correction for this tab? Suggest correction