Oops, an error
Loading. Please wait.

Always In My Head Bass Tab

1,953 views 21 this week
no commentswrite comment
1 2 3 4 5
excellent!
x 5
add to favorites
launch autoscroll
font size
0
reset
guitar tuner
Tab Pro tools
  • play this tab
  • loop segment
  • change instrument
  • show fretboard
  • metronome
×
Best way to learn
"Always In My Head"
Autoscroll
slow
fast
+/-
esc
set tempo
stop
Contributor
Difficulty
novice
-------------------------------------------------------------------------------
                             Always In My Head - Coldplay
-------------------------------------------------------------------------------
Tabbed by: Andrew P
Tuning: Standard

This entire song is just a variation on a single, slow riff. I've tabbed it how I think 
it sounds on the track
but you could get away with just repeating the same two lines for most of the song if 
you wanted.

 Bass begins at 0.33:
G|----------------|-----------------|----------------------|-----------------|
D|----------------|-----------------|----------------------|-----------------|
A|----------------|-----------------|----------------------|-----------------|
E|--3--3--3-3-----|--/6-----6-6-----|--/10--10--10-10--10--|--/12-----\8-----|

G|----------------|-----------------|----------------------|-----------------|
D|----------------|-----------------|----------------------|-----------------|
A|----------------|-----------------|----------------------|-----------3--3--|
E|--3-----3-3--3--|--/6--6--6-6--6--|--/10--10--10-10--10--|--\1--1--1-------|


G|----------------|
D|----------------|
A|----------------|
E|--3-------------|

Half a verse with no bass.

 1.31 "My body moves....":
G|----------------|----------------|----------------|----------------|
D|----------------|----------------|----------------|----------------|
A|----------------|--1--1--1-1--1--|--5--5--5-5--5--|--7------\3-----|
E|--3--3--3-3--3--|----------------|----------------|----------------|

G|----------------|----------------|----------------|----------------|
D|----------------|----------------|----------------|----------------|
A|----------------|--1--1--1-1--1--|--5--5--5-5--5--|----------3--3--|
E|--3--3--3-3--3--|----------------|----------------|--1--1--1-------|

 2.01 "And you're always in my head...":
G|--------------------|--------------------|--------------------|--------------------|
D|--------------------|--------------------|--------------------|--------------------|
A|--------------------|--1--1--1-1--1-1-3--|--5--5--5-5--5------|----------3--3-3-5--|
E|--3--3--3-3--3-1-3--|--------------------|--------------------|--1--1--1-----------|

G|--------------------|--------------------|--------------------|----------5--9-5-5--|
D|--------------------|--------------------|--------------------|--------5-----------|
A|--------------------|--1--1--1-1--1-1-3--|--5--5--5-5--5------|--/7----------------|
E|--3--3--3-3--3------|--------------------|--------------------|--------------------|

G|--------------------|--------------------|--------------------|------------------|
D|--------------------|--------------------|--------------------|---------------0--|
A|--------------------|--1-----1-1--1-1-3--|--5-----5-5--5-0-5--|--3---3-3--3-3----|
E|--3-----3-3--3-1-3--|--------------------|--------------------|------------------|

G|--------------------|--------------------|--------------------|------------------|
D|--------------------|--------------------|--------------------|---------------0--|
A|--------------------|--1-----1-1--1-1-3--|--5-----5-5--5-0-5--|--3---3-3--3-3----|
E|--3-----3-3--3-1-3--|--------------------|--------------------|------------------|

 3.00 "This, I guess....":
G|----------------|----------------|----------------|----------------|
D|----------------|----------------|----------------|----------------|
A|----------------|--1--1--1-1--1--|--5-----5-5--5--|--/7-----\3-----|
E|--3-----3-3--3--|----------------|----------------|----------------|

G|----------------|
D|----------------|
A|----------------|
E|--3-----3-3-----|

| /  slide up
| \  slide down
| h  hammer-on
| p  pull-off
| ~  vibrato
| +  harmonic
| x  Mute note
===============================================================================
comments
print report bad tab
I want to post or [tab]
guest
You may want to rate the tab now too:
select rating
Please do not post tabs as comments. Select "correction" instead!