Oops, an error
Loading. Please wait.

Amazing Day tab

7,504 views 72 this week
3 commentsread comments
1 2 3 4 5
x 9
add to favorites
×
Save as Personal and add changes to this tab that will be seen only by you. Learn more ›
×
You can save this tab as Personal to edit and correct it or add notes. All changes will be seen only by you. Learn more »
launch autoscroll
font size
0
reset
how to read this tab
guitar tuner
edit
Autoscroll
slow
fast
+/-
esc
set tempo
stop
Author
Difficulty
Unregistered
-------------------------------------------------------------------------------
                             Amazing Day - Coldplay
-------------------------------------------------------------------------------
Tabbed by: jjwiggy

The following tab is based on Coldplay's live performance "Amazing Day" at the "Global Citizen Festival 2015"
Which can be heard here: https://www.youtube.com/watch?v=JDEe8q9rnQ8

I'm almost certain this is 100% correct. Let me know what you think in the comments!

Thanks, enjoy.

Tuning: Standard


[Intro]

e|----------------------------------------------------------|
B|----------------------------------------------------------|
G|----------------------------------------------------------|  
D|----------------------------------------------------------|
A|----------------------------------------------------------|
E|-1\8---8-8-8-8--13/8---8-8-8--1\8---8-8-8-8--13/8---8-8-8-|(x2)   


[Main Riff] 

(with delay)
e|------------------------------------------------------------------------------------------------------|
B|-------------------------------------------------------------------11-(11)--10-(10)-------------------|
G|-12-(12)--10-(10)--9-(9)--10-(10)--14-(14)--12-(12)--10-(10)--9-(9)------------------12-(12)--10-(10)-|
D|------------------------------------------------------------------------------------------------------|
A|------------------------------------------------------------------------------------------------------|
E|------------------------------------------------------------------------------------------------------|


[Ending 1]

e|----------------------------------|
B|----------------------------------|
G|-12-(12)--10-(10)--10-(10)--9-(9)-|
D|----------------------------------|
A|----------------------------------|
E|----------------------------------|

e|------------------------------------------------------------------------------------------------------|
B|-------------------------------------------------------------------11-(11)--10-(10)-------------------|
G|-12-(12)--10-(10)--9-(9)--10-(10)--14-(14)--12-(12)--10-(10)--9-(9)------------------12-(12)--10-(10)-|
D|------------------------------------------------------------------------------------------------------|
A|------------------------------------------------------------------------------------------------------|
E|------------------------------------------------------------------------------------------------------|


[Ending 2]

e|---------------------------|
B|-/15--13-------------------|
G|---------14--12----12h14---|
D|---------------------------|  
A|---------------------------|
E|---------------------------|


[Verse 1]

 Sat on a roof, named every star.        Shed every bruise and, showed every scar.
(Sat on a roof, your hand in mine, singing.   "Life has a crazy beautiful design.")
e|---------------------------------------------------------------------------------------|
B|---------------------------------------------------------------------------------------|
G|--------------------------14--12-----15-----------------------14-----------12----12h14-|
D|---------------------------------------------------------------------------------------|
A|---------------------------------------------------------------------------------------|
E|---------------------------------------------------------------------------------------|(x2)

And time...             Seemed to say       "Forget the world and all its weight"
e|-10-10---10----10-10---10----8-8---8----8-8---8----8-8---8----8-8---8----10-10---10--|
B|-------10--10--------10--10------10-10------10-10------10-10------10-10--------10--10|
G|-------------------------------------------------------------------------------------|
D|-------------------------------------------------------------------------------------|
A|-------------------------------------------------------------------------------------|
E|-------------------------------------------------------------------------------------|

                Here,         I just wanna say 
e|-10-10---10---10-10---10---10-10---10/13--13----12----12----12----12----12----|
B|-------10--10-------10--10---------10/13-----13----13----13----13----13----13-|
G|------------------------------------------------------------------------------|
D|------------------------------------------------------------------------------|
A|------------------------------------------------------------------------------|
E|------------------------------------------------------------------------------|

Amazing day...
e|-----------------------------|
B|------------13/15------------|
G|-------------------14/12-----|
D|--------------------------10-|
A|-----------------------------|
E|-----------------------------|(x2)


[Main Riff] (ENDING 1)


[Verse 2]

 Sat on a roof, named every star, and       Showed me a place where, you can be who you are.
e|------------------------------------------------------------------------------------------|
B|------------------------------------------------------------------------------------------|
G|--------------------------14--12-----15------------------------------------14----------12-|  
D|------------------------------------------------------------------------------------------|
A|------------------------------------------------------------------------------------------|
E|------------------------------------------------------------------------------------------|

And the view,         the whole milky way.     In your arms,        I just wanna stay
e|------10-10---10----10-10---10----8-8---8----8-8---8----8-8---8----8-8---8----10-10---10--|
B|------------10--10--------10--10------10-10------10-10------10-10------10-10--------10--10|
G|------------------------------------------------------------------------------------------|
D|------------------------------------------------------------------------------------------|
A|------------------------------------------------------------------------------------------|
E|------------------------------------------------------------------------------------------|

          In you arms,        I just wanna sway 
e|-10-10---10---10-10---10---10-10---10/13--13----12----12----12----12----12----|
B|-------10--10-------10--10---------10/13-----13----13----13----13----13----13-|
G|------------------------------------------------------------------------------|
D|------------------------------------------------------------------------------|
A|------------------------------------------------------------------------------|
E|------------------------------------------------------------------------------|
            
Amazing day...
e|-12b13-13------------------|
B|----------13/15------------|
G|-----------------14/12-----|
D|------------------------10-|
A|---------------------------|
E|---------------------------|(x4)

[Main Riff] (ENDING 1 and 2)


[Bridge]

I asked every book,      poetry and chime:  "Can there be breaks in the chaos sometimes?"    
e|------10-10---10----10-10---10----8-8---8----8-8---8----8-8---8----8-8---8----10-10---10--|
B|------------10--10--------10--10------10-10------10-10------10-10------10-10--------10--10|
G|------------------------------------------------------------------------------------------|
D|------------------------------------------------------------------------------------------|
A|------------------------------------------------------------------------------------------|
E|------------------------------------------------------------------------------------------|
       
  Oh, thanks God. You must've heard when I prayed.               Because now I 
e|10-10---10---10-10---10---10-10---10/13--13----12----12----12----12----12----|
B|------10--10-------10--10---------10/13-----13----13----13----13----13----13-|
G|------------------------------------------------------------------------------------------|
D|------------------------------------------------------------------------------------------|
A|------------------------------------------------------------------------------------------|
E|------------------------------------------------------------------------------------------|

   Always            want       to        feel                 this way
e|-------------------------------------------------------------------------------|      
B|-------------------------------------------------------------------------------|
G|-10-10-10-10-10-10-12-12-12-12-12-12-12-14-14-14-14-14-14-14-12-12-12-12-12-12-|  
D|-------------------------------------------------------------------------------|
A|-------------------------------------------------------------------------------|
E|-------------------------------------------------------------------------------|

Amazing day...
e|-12b13-13------------------|
B|----------13/15------------|
G|-----------------14/12-----|
D|------------------------10-|
A|---------------------------|
E|---------------------------|(x4)

e|----------------------------------------------------------|
B|----------------------------------------------------------|
G|----------------------------------------------------------|
D|----------------------------------------------------------|
A|----------------------------------------------------------|
E|-1\8---8-8-8-8--13/8---8-8-8--1\8---8-8-8-8--13/8---8-8-8-|(x2) 

End on F

************************************

| /   slide up
| \   slide down
| h   hammer-on
| b   Bend

************************************

            
            
Suggest correction
Creating personal tab
Creating personal tab
You can edit any tab online and save it as your Personal.

You can edit, replace or remove any tab part or add personal notes – all changes will be seen only by you.

Personal tabs can be accessed anytime from any device, even offline.
Learn more »
comments
print report bad tab
3 comments total.
+1 reply
jepper313 10 Dec 22, 2015 11:24 AM

What I think? It's really good. But you're missing whatever Jonny plays when Chris sings "Amazing Day"

0 reply
Lukeskywal23 10 Apr 22, 2017 12:57 AM

This tab is spot on so happy to play it :) thanks heaps

0 reply
mozaaffendi 10 Apr 26, 2017 11:17 AM

Quite close but if you watch others live performance, you can notice Jonny play with different style. He plucking the strings (use his thumb to play D string). I'm still workout the way Jonny play it actually.

guest
Wanna post a correction for this tab? Suggest correction