Oops, an error
Loading. Please wait.

Cemeteries Of London Bass Tab

3,598 views 3 this week
no commentswrite comment
1 2 3 4 5
x 6
add to favorites
launch autoscroll
font size
0
reset
guitar tuner
Autoscroll
slow
fast
+/-
esc
set tempo
stop
Help us to improve Ultimate-Guitar.com Take our survey!
×
Difficulty
intermediate
verse/solo

G|-----------------------------------------------------------------------|
D|--------4-4-4-44-4--------------------------4-4-4-44-4---8-8-4----8-8-4|
A|6-6-66-6----------4-4-44-4-6-6-66-4-6-6-66-6---------------------------|
E|------6-----------------4--------6--------6-----------6-6------6-6-----|

CHORUS

G|8-8-88-6-8-8-88-6-8-8-88-88-8---------------------------------|
D|------8--------8---------------------4-4-44-4-4---------------|
A|-----------------------------6-6-66-6----------4-4-44-4-6-6-66|
E|-----------------------------------6-----------------4--------|

VERSEx2
CHORUS
VERSEx2
BREAK
CHORUSx2
Suggest correction
comments
print report bad tab
guest
You may want to rate the tab now too:
select rating
Wanna post a correction for this tab? Suggest correction