Oops, an error
Loading. Please wait.

Cemeteries Of London Tab

version 1
version 1

Whole song

31,147 views 6 this week
6 commentsread comments
1 2 3 4 5
accurate
x 10
add to favorites
launch autoscroll
font size
0
reset
how to read this tab
guitar tuner
Autoscroll
slow
fast
+/-
esc
set tempo
stop
Help us to improve Ultimate-Guitar.com Take our survey!
×
Author
Difficulty
Capo
novice
1st fret
Capo on 1st fret


Intro: flanger/reverb effects here. very 'spacey' sound

                               D5
At night they would go walking till the...
------------------------------------------------|
--------------------------------3---------------|
--------------------------------2---------------|
------------------------------------------------|
------------------------------------------------|
------------------------------------------------|
                         D5
The morning is for sleeping
--------------------------------|
-------------------------3------|
-------------------------2------|
--------------------------------|
--------------------------------|
--------------------------------|
                                                D5
Through the dark streets they go searching to see God in their own way
-----------------------------------------------------------------|
-------------------------------------------------3---------------|
-------------------------------------------------2---------------|
-----------------------------------------------------------------|
-----------------------------------------------------------------|
-----------------------------------------------------------------|
                                  D5
Save the nighttime for you weeping             Your Weeping
------------------------------------------------|
----------------------------------3-------------|
----------------------------------2-------------|
------------------------------------------------|
------------------------------------------------|
------------------------------------------------|


        F         C         Dm
Singing la la la la la la lay
        F          Am         Dm
And the night over London hey

      Dm               F               C              Dm
So we rode down to the river where the toiling ghosts spring
          Dm           C       Am
For their curses to be broken
         Dm             F                C                  Dm
We'll go underneath the arches where the witches are in the sea
          Dm                 F      Am
There are ghost towns in the ocean
    Dm
The ocean


        F        C          Dm
Singing la la la la la la lay
        F          Am          Dm
And the night over London rain


Solo:(relative to capo)
-10-----8-7-------7b----------|--10----8-7-------7b--------12--------|
---------------8------8-------|---------------8----------------------|
-------------------------9----|--------------------------------------|
------------------------------|--------------------------------------|
------------------------------|--------------------------------------|
------------------------------|--------------------------------------|

-10--8-7-5-|     -12---8-7-5--|      -10---8-7-5-|
-----------|     -------------|      ------------|
-----------|x6   -------------|x2    ------------| x2
-----------|     -------------|      ------------|
-----------|     -------------|      ------------|
-----------|     -------------|      ------------|


Dm         F           Am           Dm
God in the houses, and god is in my head
            Dm            F        Am
And all the cemeteries in London
      Dm             F             Am                     Dm
I see god come in my garden, but I don't know what he'd say
       Dm              F     Am
For my heart it wasn't open
    Dm
Not open


      F        C          Dm
Singing la la la la la la lay
        F          Am        Dm
And the night over London hey
        F        C          Dm
Singing la la la la la la lay
           F          Am         Dm
There's no light over London today
Suggest correction
comments
print report bad tab
6 comments total. Showing first comments.
+2 reply
Mr Pagan 90 wrote on June 18 2008, 03:55 pm

excellent tab :D
thank you i bloody love coldplay.
best band in the world

+1 reply
Wesseem 31 wrote on June 18 2008, 04:40 pm

thanks! yea i love coldplay too, gonna see them live next month.

0 reply
shadley15 31 wrote on July 17 2008, 11:14 pm

first part of the solo sounds a little more like this

-10-----8-7-------7b----------|--10----8-7--------7b-------12--------|
----------------8-------8-----|-----------------8--------------------|
---------------------------9--|--------------------------------------|
------------------------------|--------------------------------------|
------------------------------|--------------------------------------|
------------------------------|--------------------------------------|

guest
You may want to rate the tab now too:
select rating
Wanna post a correction for this tab? Suggest correction