Oops, an error
Loading. Please wait.

Charlie Brown Tab

version 4
version 4

Whole song

Interactive

6,093 views 18 this week
no commentswrite comment
1 2 3 4 5
excellent!
x 4
add to favorites
launch autoscroll
font size
0
reset
how to read this tab
guitar tuner
Autoscroll
slow
fast
+/-
esc
set tempo
stop
Help us to improve Ultimate-Guitar.com Take our survey!
×
Difficulty
intermediate
Intro (repeat twice):

E----6---6------6-----6-----6-------6-------------------------------------------|
A--6---6--4s3s4---4s3----4----4s3s4----4-------3-------3-------3----------------|
D-----------------------------------------3h5-----3h5-----3h5-----5----3----0---|
G-------------------------------------------------------------------------------|
B-------------------------------------------------------------------------------|
e-------------------------------------------------------------------------------|

E-----------------------------------------------------------------------------|
A--------3-------3-------3----------------------------------------------------|
D--3h5-----3h5-----3h5------5-----3-------------------------------------------|
G-----------------------------------------------------------------------------|
B-----------------------------------------------------------------------------|
e-----------------------------------------------------------------------------|

Gm   Ebmaj     Bbmaj
            Stole a key
          Gm                                   Ebmaj
Took a car downtown where the lost boys meet
         Bbmaj                       Ebmaj                                Gm
Took a car downtown and took what they offered me
   Ebmaj        Bbmaj
To set me free
               Gm                             Ebmaj
I saw the lights go down at the end of the scene
               Bbmaj                       Ebmaj
I saw the lights go down and standing in front of me


Gm Ebmaj Bbmaj Bbmaj Gm Ebmaj Gm Cm


Gm       Ebmaj           Bbmaj
       In my scarecrow dreams
                 Gm                                   Ebmaj
When they smashed my heart into smithereens
         Bbmaj                       Ebmaj                                Gm
Be a bright red rose come bursting the concrete
   Ebmaj        Bbmaj
Be the cartoon heart

Ebmaj
Light a fire, light a spark
F                     Ebmaj
Light a fire, a flame in my heart

           Ebmaj
We'll run wild oh
                                Gm
We'll be glowing in the dark

                   F
All the boys, all the girls
Ebmaj                      Bbmaj
All that matters in the world
                   F
All the boys, all the girls
Ebmaj                      Bbmaj
All that matters that occurs
                   F
All the highs, all the lows
Ebmaj                      Bbmaj
As the room is spinning, oh

           Ebmaj
We'll run wild
                                Gm
We'll be glowing in the dark

           Ebmaj
Living innocent wild
                               Gm
We'll be glowing in the dark
comments
print report bad tab
I want to post or [tab]
guest
You may want to rate the tab now too:
select rating
Please do not post tabs as comments. Select "correction" instead!