Oops, an error
Loading. Please wait.

Clocks Chords

version 2
version 2

Acoustic

Interactive

Video

62,095 views 255 this week
3 commentsread comments
1 2 3 4 5
x 78
add to favorites
launch autoscroll
font size
0
reset
transpose
0
reset
simplify chords
display chords
guitar tuner
Autoscroll
slow
fast
+/-
esc
set tempo
stop
Help us to improve Ultimate-Guitar.com Take our survey!
×
Difficulty
Capo
novice
1st fret
Clocks by Coldplay

Capo 1

Piano Riff x2

OR

Guitar Riff

e|10--------10------10------|---8---------8------8-----|        
B|---10--------10-------10--|-----8---------8------8---|        
G|-----11--------11---------|--------9--------9--------|        
D|--------------------------|--------------------------|        
A|--------------------------|--------------------------|        
E|--------------------------|--------------------------|        
 
 
 
e|---8-------8--------8----|--7--------7--------7------|        
B|----8-------8---------8--|----8---------8--------8---|        
G|------9-------9----------|------9----------9---------|        
D|-------------------------|---------------------------|        
A|-------------------------|---------------------------|        
E|-------------------------|---------------------------|


 
[Intro]
(w/Piano Riff or Guitar Riff)

/ D       / Am       / Am       / Em       / (x2)


[Verse]

D                    Am(2)                                 Em
Lights go out and I can't be saved, tides that I tried to swim against
D                 Am (2)                Em
Brought me down upon my knees, oh I beg I beg and plead -singing
D               Am (2)                       Em
Come out of the things unsaid, shoot an apple off my head - and a
D              Am (2)                       Em
trouble that can't be named, tigers waiting to be tamed - singing

 
[Chorus]
(w/Piano Riff or Guitar Riff)

D      Am (2)           Em       D      Am (2)           Em
  ye hooooooooh    aahh       ye hooooooooh    aahh 


[Instrumental]
(w/Piano Riff or Guitar Riff)

/ D       / Am       / Am       / Em       / (x2)


[Chorus]

  D       Am (2)                         Em
Confusion never stops, closing walls and ticking clocks - gonna
D             Am (2)                              Em
come back and take you home, I could not stop the tune now known - singing
D             Am (2)                     Em
Come out upon my seas, curse missed opportunities - am I
D       Am (2)                        Em
a part of the cure, or am I a part of the disease? - singing


[Chorus]
(w/Piano Riff or Guitar Riff)

D      Am (2)           Em       D      Am (2)           Em
  ye hooooooooh    aahh       ye hooooooooh    aahh 


[Instrumental]
(w/High Piano Riff or Guitar Riff)

/ D       / Am       / Am       / Em       / (x2)


[Chorus]
(w/High Piano Riff or Guitar Riff)

D      Am (2)           Em       D      Am (2)           Em
  ye hooooooooh    aahh       ye hooooooooh    aahh


[Bridge]

Fmaj7 (2)                     C       G
  and nothing else compares
Fmaj7 (2)                   C       G
  oh nothing else compares
Fmaj7 (2)                     C       G     F (4)
  and nothing else compares

 
[Instrumental]

(Piano Riff or Guitar Riff x2)

(w/High Piano Riff or Guitar Riff)
/ D       / Am       / Am       / Em       / (x2)


[Chorus] 
(w/High Piano Riff or Guitar Riff)

D      Am (2)           Em       D      Am (2)           Em
  ye hooooooooh    aahh       ye hooooooooh    aahh


[Outro] 
(w/High Piano Riff or Guitar Riff)

D          Am (2)              Em
Home, home, where I wanted to go  
D          Am (2)              Em
Home, home, where I wanted to go   
D          Am (2)              Em
Home, home, where I wanted to go   
D          Am (2)              Em
Home, home, where I wanted to go   


[Instrumental]
(High Piano Riff or Guitar Riff x2)


[Ending]

D
Suggest correction
comments
print report bad tab
3 comments total.
0 reply
Loucksg 268 May 03, 2014 09:24 AM, edited at 09:25 am

Great Tab!Strumming pattern:v v v1+2+3+4+all down strokes with a few accents

0 reply
Loucksg 268 May 03, 2014 09:26 AM, edited at 09:27 am

1+2+3+4+
v v v

0 reply
jmponty 10 Jan 26, 2016 03:47 PM



e|10--------10------10------|---8---------8------8-----|
B|---10--------10-------10--|-----10--------10----10---|
G|-----11--------11---------|--------9--------9--------|
D|--------------------------|--------------------------|
A|--------------------------|--------------------------|
E|--------------------------|--------------------------|

e|---8-------8--------8----|--7--------7--------7------|
B|----10------10-------10--|----8---------8--------8---|
G|------9-------9----------|------9----------9---------|
D|-------------------------|---------------------------|
A|-------------------------|---------------------------|
E|-------------------------|---------------------------|

guest
You may want to rate the tab now too:
select rating
Wanna post a correction for this tab? Suggest correction