Oops, an error
Loading. Please wait.
We have Chord Pro version of Clocks.
It's the closest thing you can get to the original song and it has interactive parts. Check out the tab »
×

Clocks Bass

version 1
version 1

Whole song

Interactive

90,666 views 105 this week
6 commentsread comments
1 2 3 4 5
x 48
add to favorites
launch autoscroll
font size
0
reset
guitar tuner
backing track
0:00
0:00
Autoscroll
slow
fast
+/-
esc
set tempo
stop
Author
Difficulty
novice
----------------------------------------------------------------------------
                             Clocks - Coldplay
----------------------------------------------------------------------------

Tabbed By : jordan
e-mail: jordangrainger@hotmail.co.uk
Tuning: standard
every 1111 in this tab is an 11 not a 1


[Intro]

piano no bass for 2 then kick in with

G|----------------------------------------------|
D|----------88888888-1111111111111111-333333333-| x 2
A|-66666666-------------------------------------|
E|----------------------------------------------|


[Verse]

G|-------------------------------------|
D|----------88888888-88888888-33333333-|
A|-66666666----------------------------| x 5
E|-------------------------------------|


[Pre-Chorus]

G|----------------------------------|
D|-------6h8-8888888h10--8--6--5----|
A|-666666-------------------------3-| x 2
E|----------------------------------|


[Verse]

G|-------------------------------------|
D|----------88888888-88888888-33333333-|
A|-66666666----------------------------| x8
E|-------------------------------------|


[Pre-Chorus]

G|----------------------------------|
D|-------6h8-8888888h10--8--6--5----|
A|-666666-------------------------3-| x4
E|----------------------------------|


[Chorus]

G|---------------------------------------------|
D|-44444444-44444444-1111111111111111-66666666-|
A|---------------------------------------------| x3
E|---------------------------------------------|

G|-------------------------------------------------------|
D|-44444444-1111111111111111-444444444-11111111111111111-|
A|-------------------------------------------------------|
E|-------------------------------------------------------|


(piano break for 2)


[Pre-Chorus]

G|----------------------------------|
D|-------6h8-8888888h10--8--6--5----|
A|-666666-------------------------3-| x8
E|----------------------------------|


[Outro]

G|--------------------------------------------|
D|----------8~~~~~~~~~8~~~~~~~~~3~~~~~~~~~~~~-|
A|-6~~~~~~~~----------------------------------|
E|--------------------------------------------|   (fade out)



************************************

| h  Hammer-on
| ~  Vibrato

************************************
Suggest correction
comments
print report bad tab
6 comments total. Showing first comments.
0 reply
BassDean 30 Jun 08, 2008 11:33 PM

Good tab ^^

0 reply
GaurPower 10 Aug 26, 2008 11:08 AM

I'm trying to play songs with my Aunt, who's a piano teacher, and I play the bass. Hope this song works, others we have tried are How to Save a Life and Im ready by Jacks Mannequin. Any other suggestions...anyone?

+1 reply
mighty lord o 31 May 22, 2010 12:14 PM

Surely what you have named the pre-chorus is the chorus, and what you have called the chorus is actually the middle-8 or bridge.

guest
You may want to rate the tab now too:
select rating
Wanna post a correction for this tab? Suggest correction