Oops, an error
Loading. Please wait.

Clocks Tab

version 2
version 2
93,810 views 54 this week
11 commentsread comments
1 2 3 4 5
accurate
x 23
add to favorites
launch autoscroll
font size
0
reset
how to read this tab
guitar tuner
Autoscroll
slow
fast
+/-
esc
set tempo
stop
Help us to improve Ultimate-Guitar.com Take our survey!
×
Contributor
Difficulty
Capo
Osh 51
novice
1st fret
-------------------------------------------------------------------------------
                             Clocks - Coldplay
-------------------------------------------------------------------------------
Tabbed by: Osh
Email: oshryi111@gmail.com

Tuning: E A D G B E (Standard tuning)


====Capo on 1st fret=====


Riff:

D/F# || Am || Am || Em

bridge:

Fmaj7 || c || G || --F

=====================
chords:

D/F# -  x|x|x|4|2|3
Am   -  x|0|2|2|1|0
Em   -  0|2|2|0|0|0
Fmaj7-  x|x|3|2|1|0
C    -  x|3|2|0|1|0
G    -  3|2|0|0|3|3
=====================

On guitar it gos like this:

     D/F#           
e|---------------------------------------------------------|
B|----3----------------3-------------------3---------------|
G|--------2------------------2------------------2----------|
D|------------4--------------------4-----------------------|
A|---------------------------------------------------------|
E|---------------------------------------------------------|

     Am           
e|---------------------------------------------------------|
B|----1----------------1-------------------1---------------|
G|--------2------------------2------------------2----------|
D|------------2--------------------2-----------------------|
A|---------------------------------------------------------|
E|---------------------------------------------------------|

     Am           
e|---------------------------------------------------------|
B|----1----------------1-------------------1---------------|
G|--------2------------------2------------------2----------|
D|------------2--------------------2-----------------------|
A|---------------------------------------------------------|
E|---------------------------------------------------------|

      Em           
e|---------------------------------------------------------|
B|----0----------------0-------------------0---------------|
G|--------0------------------0------------------0----------|
D|------------2--------------------2-----------------------|
A|---------------------------------------------------------|
E|---------------------------------------------------------|


===============
| /  slide up
| \  slide down
| h  hammer-on
| p  pull-off
| ~  vibrato
| +  harmonic
| x  Mute note
===============

++++++++++++++++++++++++++++++++++++++++++++++++++++++++++++++++++++

D/F#                Am(x2)                                 Em  

-------------------------------------------------------------- 

D/F#                Am(x2)                                 Em  

-------------------------------------------------------------- 



D/F#                Am(x2)                                 Em

Lights go out and I can’t be saved,  Tides that I tried to swim against 

D/F#                Am(x2)                                 Em

Brought me down upon my knees, Oh I beg, I beg and plead 

D/F#                Am(x2)                                 Em

Singin’, come out if things aren’t said, Shoot an apple off my head 

D/F#                Am(x2)                                 Em

And a, trouble that can’t be named, Tigers waitin’ to be tamed 


D/F#                Am(x2)                                 Em

Singing, yooooooooooooooooooooooooooooooooo ohhhhhhhhhhhhhhhhhh 

D/F#                Am(x2)                                 Em

Yoooooooooooooooooooooooooooooooooooooooooo ohhhhhhhhhhhhhhhhhh 





D/F#                Am(x2)                                 Em

Confusion never stops, Closing walls and ticking clocks 

D/F#                Am(x2)                                 Em

Gonna, come back and take you home, I could not stop that you now know 

D/F#                Am(x2)                                 Em

Singin’, come out upon my seas, Curse missed opportunities 

D/F#                Am(x2)                                 Em

Am I, a part of the cure, Or am I part of the disease 




D/F#                Am(x2)                                 Em

Singing, yooooooooooooooooooooooooooooooooo ohhhhhhhhhhhhhhhhhh 

D/F#                Am(x2)                                 Em

Yoooooooooooooooooooooooooooooooooooooooooo ohhhhhhhhhhhhhhhhhh 



D/F#                Am(x2)                                 Em  

--------------------------------------------------------------  

D/F#                Am(x2)                                 Em  

-------------------------------------------------------------- 



D/F#                Am(x2)                                 Em   

Yoooooooooooooooooooooooooooooooooooooooooo ohhhhhhhhhhhhhhhhhh 

D/F#                Am(x2)                                 Em

Yoooooooooooooooooooooooooooooooooooooooooo ohhhhhhhhhhhhhhhhhh 




BRIDGE:

Fmaj7(x2)           C    G
   Oh nothing else compares 

Fmaj7(x2)           C    G
   Oh nothing else compares 

Fmaj7(x2)           C    G
   And nothing else compares 





D/F#                Am(x2)                                 Em

Yoooooooooooooooooooooooooooooooooooooooooo ohhhhhhhhhhhhhhhhhh 

D/F#                Am(x2)                                 Em

Yoooooooooooooooooooooooooooooooooooooooooo ohhhhhhhhhhhhhhhhhh 



(high Riff)

D/F#          Am (2)              Em

Home, home, where I wanted to go  

D/F#          Am (2)              Em

Home, home, where I wanted to go  

D/F#          Am (2)              Em

Home, home, where I wanted to go  

D/F#          Am (2)              Em

Home, home, where I wanted to go  


|Play high Riff|

|End song with D/F#|


++++++++++++++++++++++++++++++++++++++++++++++++++++++++++++++++++++



You can try to do the high riff like this:

(like high D/F#)
e|---------------------------------------------------------|
B|----16----------------16-------------------16------------|
G|--------15------------------15------------------15-------|
D|------------17--------------------17---------------------|
A|---------------------------------------------------------|
E|---------------------------------------------------------|

(like high Am)                
e|---------------------------------------------------------|
B|----14----------------14-------------------14------------|
G|--------15------------------15------------------15-------|
D|------------15--------------------15---------------------|
A|---------------------------------------------------------|
E|---------------------------------------------------------|

(like high Am)
e|---------------------------------------------------------|
B|----14----------------14-------------------14------------|
G|--------15------------------15------------------15-------|
D|------------15--------------------15---------------------|
A|---------------------------------------------------------|
E|---------------------------------------------------------|

(like high Em)
e|---------------------------------------------------------|
B|----13----------------13-------------------13------------|
G|--------13------------------15------------------15-------|
D|------------15--------------------15---------------------|
A|---------------------------------------------------------|
E|---------------------------------------------------------|
       



That's all :)

Have fun!

Coldplay ROCKS.
Suggest correction What's this?
You can suggest a correction to this tab. Community and Mods will review your correction and vote to approve or reject it.
comments
print report bad tab
11 comments total. Showing first comments.
0 reply
smari 162 wrote on December 21 2007, 09:25 pm

dang, good job..

x.

0 reply
guymenton 42 wrote on March 6 2008, 12:48 am

f*ckin awesome!!!!

-1 reply
aerialsdude 39 wrote on June 26 2008, 02:31 pm

when the higher pitched part comes in its

e-3-2---3-2---3-2-3-2---3-2---3-2-3-2-3-2---3-2-3-2---3-2---3-2-3-2--
b-----3-----3---------1-----1--------1----1---------0-----0--------

Its a very good tab.

I want to post or [tab]
guest
You may want to rate the tab now too:
select rating
Please do not post tabs as comments. Select "correction" instead!