Oops, an error
Loading. Please wait.

Clocks Bass Tab

version 3
version 3
3,765 views 1 this week
no commentswrite comment
1 2 3 4 5
please rate
add to favorites
launch autoscroll
font size
0
reset
guitar tuner
Tab Pro tools
  • play this tab
  • loop segment
  • change instrument
  • show fretboard
  • metronome
×
Best way to learn
"Clocks"
Autoscroll
slow
fast
+/-
esc
set tempo
stop
Contributor
-------------------------------------------------------------------------------
			CLOCKS  - COLD PLAY
-------------------------------------------------------------------------------

Tabbed By : James Ryan
http://world-according-to-jim.blogspot.com/

Tuning: Standard

Intro / Verses / CHORUS 
G|------------------------------------------------------------------|
D|------------------------------------------------------------------|
A|-6-6-6-6-6-6-6-6---------------------------------8-8-8-8-8-8-8-8--|
E|-----------------6-6-6-6-6-6-6-6-6-6-6-6-6-6-6-6------------------|

Interlude
G|-----------------------------------------------------------------|
D|-------------6-8-8-8-8-8-8-8-8-10-8-8-8-6-6-5-5-6-6-6-6-6-6-6-6--|
A|-6-6-6-6-6-6-----------------------------------------------------|
E|-----------------------------------------------------------------|

Bridge  (2:56)
G|------------------------------------------------------------------|
D|------------------------------------------------------------------|
A|---------------------------------4-4-4-4-4-4-4-4------------------|
E|-2-2-2-2-2-2-2-2-2-2-2-2-2-2-2-2-----------------4-4-4-4-4-4-4-4--|X3

G|------------------------------------------------------------------------|
D|------------------------------------------------------------------------|
A|----------------------------------/9-9-9-9-9-9-9-9-9-9-9-9-9-9-9-9---6~-|
E|-2-2-2-2-2-2-2-2-2-2-2-2-2-2-2-2----------------------------------------|

Outro
G|---------------|
D|---------------|
A|-6~---------8~-|
E|-----6~-6~-----|
comments
We did not receive enough feedback on this tab! Please rate:
print report bad tab
1 2 3 4 5
I want to post or [tab]
guest
You may want to rate the tab now too:
select rating
Please do not post tabs as comments. Select "correction" instead!