Oops, an error
Loading. Please wait.

Clocks Tab

version 5
version 5
2,197 views 3 this week
no commentswrite comment
1 2 3 4 5
please rate
add to favorites
launch autoscroll
font size
0
reset
how to read this tab
guitar tuner
Autoscroll
slow
fast
+/-
esc
set tempo
stop
Help us to improve Ultimate-Guitar.com Take our survey!
×
Author
Difficulty
intermediate
-------------------------------------------------------------------------------
                             CLOCKS - Coldplay
-------------------------------------------------------------------------------
Tabbed by: jamescrevald

Tuning:Standard

intro: x4

e|------11-----------11--------11------9-------9-------9-----9------9--------|
B|---------11-----------11--------11-----10------10------10----10------10----|
G|-------------12----------12---------------8-------8-------------8-------8--|
D|---------------------------------------------------------------------------|
A|---------------------------------------------------------------------------|
E|---------------------------------------------------------------------------|

e|--9-----8---------8---------8----------------------------------------------|
B|----10-----9---------9---------9-------------------------------------------|
G|--------------10--------10-------------------------------------------------|
D|---------------------------------------------------------------------------|
A|---------------------------------------------------------------------------|
E|---------------------------------------------------------------------------|

Lyrics sung by Chris Martin (play notes when he sings the words)
Play:x4

e|----11-11-11--8-9-8-6--9-9-9-6-8-6-4---------------------------------------|
B|-------------------------------------4-4-----------------------------------|
G|---------------------------------------------------------------------------|
D|---------------------------------------------------------------------------|
A|---------------------------------------------------------------------------|
E|---------------------------------------------------------------------------|

 Second time: x4

e|------11-----------11--------11------9-------9-------9-----9------9--------|
B|---------11-----------11--------11-----10------10------10----10------10----|
G|-------------12----------12---------------8-------8-------------8-------8--|
D|---------------------------------------------------------------------------|
A|---------------------------------------------------------------------------|
E|---------------------------------------------------------------------------|

e|--9-----8---------8---------8----------------------------------------------|
B|----10-----9---------9---------9-------------------------------------------|
G|--------------10--------10-------------------------------------------------|
D|---------------------------------------------------------------------------|
A|---------------------------------------------------------------------------|
E|---------------------------------------------------------------------------|

Second verse Lyrics sung by Chris Martin 
Play:x4

e|----11-11-11--8-9-8-6----9-9-9-6-8-6-4-------------------------------------|
B|---------------------------------------4-4---------------------------------|
G|---------------------------------------------------------------------------|
D|---------------------------------------------------------------------------|
A|---------------------------------------------------------------------------|
E|---------------------------------------------------------------------------|

Third time:x4

e|------11-----------11--------11------9-------9-------9-----9------9--------|
B|---------11-----------11--------11-----10------10------10----10------10----|
G|-------------12----------12---------------8-------8-------------8-------8--|
D|---------------------------------------------------------------------------|
A|---------------------------------------------------------------------------|
E|---------------------------------------------------------------------------|

e|--9-----8---------8---------8----------------------------------------------|
B|----10-----9---------9---------9-------------------------------------------|
G|--------------10--------10-------------------------------------------------|
D|---------------------------------------------------------------------------|
A|---------------------------------------------------------------------------|
E|---------------------------------------------------------------------------|

"Nothing else compares" part:x4 (play as quaver notes at a constant speed) 

e|-1-1-1-1-1-1-1-1-1-1-1-1-1-1-1-1-1-1-1-1-----------------------------------|
B|---------------------------------------------------------------------------|
G|---------------------------------------------------------------------------|
D|---------------------------------------------------------------------------|
A|---------------------------------------------------------------------------|
E|---------------------------------------------------------------------------|

1st Outro:x2 

e|------11-----------11--------11-----11------9-------9-------9-----9--------|
B|---------11-----------11--------11-----11-----10------10------10----10-----|
G|-------------12----------12---------------12-----8-------8-------------8---|
D|---------------------------------------------------------------------------|
A|---------------------------------------------------------------------------|
E|---------------------------------------------------------------------------|

e|-9-------9-----8---------8---------8------8--------8--------8--------------|
B|---10------10-----9---------9---------9------9--------9--------9-----------|
G|------8--------------10--------10---------------10-------10----------------|
D|---------------------------------------------------------------------------|
A|---------------------------------------------------------------------------|
E|---------------------------------------------------------------------------|

Last outro: x2

e|------11-----------11--------11------9-------9-------9-----9------9--------|
B|---------11-----------11--------11-----10------10------10----10------10----|
G|-------------12----------12---------------8-------8-------------8-------8--|
D|---------------------------------------------------------------------------|
A|---------------------------------------------------------------------------|
E|---------------------------------------------------------------------------|

e|--9-----8---------8---------8----------------------------------------------|
B|----10-----9---------9---------9-------------------------------------------|
G|--------------10--------10-------------------------------------------------|
D|---------------------------------------------------------------------------|
A|---------------------------------------------------------------------------|
E|---------------------------------------------------------------------------|

--------------------------------------END------------------------------------
Suggest correction
Give kudos to tab author, rate the tab!
1 2 3 4 5
comments
print report bad tab
guest
You may want to rate the tab now too:
select rating
Wanna post a correction for this tab? Suggest correction