Oops, an error
Loading. Please wait.
We have an official Clocks tab made by UG professional guitarists. Check out the tab »
×

Clocks bass

version 6
version 6

Whole song

1,367 views 6 this week
2 commentsread comments
1 2 3 4 5
x 5
add to favorites
×
Save as Personal and add changes to this tab that will be seen only by you. Learn more ›
×
You can save this tab as Personal to edit and correct it or add notes. All changes will be seen only by you. Learn more »
launch autoscroll
font size
0
reset
guitar tuner
backing track
0:00
0:00
edit
Autoscroll
slow
fast
+/-
esc
set tempo
stop
Author
Difficulty
About this tab version
No 5 stars rating for other versions coz no real accuracy... Was this info helpful? Yes No
Cold Play
Clocks

Bass Tab

Bassist : Guy Berryman
         
Tuning: EADG
Tempo : 132 bpm
Key signature: D+


Intro: 00:01
Piano 
|--------|
|--------|
|--------|
|--------|

Bass start=
    +  + + +   + +    +  + + +   + +    +  + + +   + +    +  + + +   + + 
G|------------------|-----------------|-----------------|-----------------|-
D|------------------|-----------------|-----------------|-----------------|-
A|--6-6-6-6-6-6-6-6-|-----------------|-----------------|-8-8-8-8-8-8-8-8-|- X2
E|------------------|-6-6-6-6-6-6-6-6-|-6-6-6-6-6-6-6-6-|-----------------|-


Verse 1 : 00:29
    +  + + +   + +    +  + + +   + +    +  + + +   + +    +  + + +   + + 
G|------------------|-----------------|-----------------|-----------------|-
D|------------------|-----------------|-----------------|-----------------|-
A|--6-6-6-6-6-6-6-6-|-----------------|-----------------|-8-8-8-8-8-8-8-8-|-
E|------------------|-6-6-6-6-6-6-6-6-|-6-6-6-6-6-6-6-6-|-----------------|-
The lights go out and I can't be saved
Tides that I tried to swim against
    +  + + +   + +    +  + + +   + +    +  + + +   + +    +  + + +   + + 
G|------------------|-----------------|-----------------|-----------------|-
D|------------------|-----------------|-----------------|-----------------|-
A|--6-6-6-6-6-6-6-6-|-----------------|-----------------|-8-8-8-8-8-8-8-8-|-
E|------------------|-6-6-6-6-6-6-6-6-|-6-6-6-6-6-6-6-6-|-----------------|-
Have brought me down upon my knees
Oh I beg, I beg and plead, singing
    +  + + +   + +    +  + + +   + +    +  + + +   + +    +  + + +   + + 
G|------------------|-----------------|-----------------|-----------------|-
D|------------------|-----------------|-----------------|-----------------|-
A|--6-6-6-6-6-6-6-6-|-----------------|-----------------|-8-8-8-8-8-8-8-8-|-
E|------------------|-6-6-6-6-6-6-6-6-|-6-6-6-6-6-6-6-6-|-----------------|-
Come out of things unsaid
Shoot an apple off my head and a
    +  + + +   + +    +  + + +   + +    +  + + +   + +    +  + + +   + + 
G|------------------|-----------------|-----------------|-----------------|-
D|------------------|-----------------|-----------------|-----------------|-
A|--6-6-6-6-6-6-6-6-|-----------------|-----------------|-8-8-8-8-8-8-8-8-|-
E|------------------|-6-6-6-6-6-6-6-6-|-6-6-6-6-6-6-6-6-|-----------------|-
Trouble that can't be named
A tiger's waiting to be tamed, singing



 Pre - chorus: 00:59
   +  + + +   + +    +  + + +   + +    +  + + +   + +    +  + + +   + + 
G|-----------------|-----------------|-----------------|-------------------|-
D|-----------------|-----------------|-----------------|-------------------|-
A|-6-6-6-6-6-6-6-6-|-----------------|-----------------|-------------------|-
E|-----------------|-6-6-6-6-6-6-6-6-|-6-6-6-6-6-6-6-6-|-1-1-1-1-1-1-1-1/--|-
You are


   +  + + +   + +    +  + + +   + +    +  + + +   + +    +  + + +   + + 
G|-----------------|-----------------|-----------------|-------------------|-
D|-----------------|-----------------|-----------------|-------------------|-
A|-6-6-6-6-6-6-6-6-|-----------------|-----------------|-------------------|-
E|-----------------|-6-6-6-6-6-6-6-6-|-6-6-6-6-6-6-6-6-|-1-1-1-1-1-1-1-1---|-
You are


Chorus instrumental: 01:13
   +  + + +   + +    +  + + +   + +     +  + + +   + +    +  + + +   + + 
G|-----------------|------------------|-----------------|-----------------|-
D|-----------5-6-8-|-8-8-8-8-8-8-8-10-|-8-8-8-6-6-6-5-5-|-----------------|-
A|-6-6-6---6-------|------------------|-----------------|-----------------|- X2
E|-----------------|------------------|-----------------|-4-4-4-4-4-4-4/--|-


Verse 2 : 01:28
   +  + + +   + +    +  + + +   + +     +  + + +   + +    +  + + +   + + 
G|------------------|-----------------|-----------------|-----------------|-
D|------------------|-----------------|-----------------|-----------------|-
A|--6-6-6-6-6-6-6-6-|-----------------|-----------------|-8-8-8-8-8-8-8-8-|-
E|------------------|-6-6-6-6-6-6-6-6-|-6-6-6-6-6-6-6-6-|-----------------|-
Confusion never stops
Closing walls and ticking clocks 
    +  + + +   + +    +  + + +   + +    +  + + +   + +    +  + + +   + + 
G|------------------|-----------------|-----------------|-----------------|-
D|------------------|-----------------|-----------------|-----------------|-
A|--6-6-6-6-6-6-6-6-|-----------------|-----------------|-8-8-8-8-8-8-8-8-|-
E|------------------|-6-6-6-6-6-6-6-6-|-6-6-6-6-6-6-6-6-|-----------------|-
Gonna come back and take you home
I could not stop that you now know, singing
   +  + + +   + +     +  + + +   + +    +  + + +   + +    +  + + +   + + 
G|------------------|-----------------|-----------------|-----------------|-
D|------------------|-----------------|-----------------|-----------------|-
A|--6-6-6-6-6-6-6-6-|-----------------|-----------------|-8-8-8-8-8-8-8-8-|-
E|------------------|-6-6-6-6-6-6-6-6-|-6-6-6-6-6-6-6-6-|-----------------|-
Come out upon my seas
Cursed missed opportunities 
   +  + + +   + +     +  + + +   + +     +  + + +   + +    +  + + +   + + 
G|------------------|-----------------|-----------------|-----------------|-
D|------------------|-----------------|-----------------|-----------------|-
A|--6-6-6-6-6-6-6-6-|-----------------|-----------------|-8-8-8-8-8-8-8-8-|-
E|------------------|-6-6-6-6-6-6-6-6-|-6-6-6-6-6-6-6-6-|-----------------|-
Am I a part of the cure?
Or am I part of the disease? Singing

 
Pre - chorus: 01:57
   +  + + +   + +    +  + + +   + +    +  + + +   + +    +  + + +   + + 
G|-----------------|-----------------|-----------------|-------------------|-
D|-----------------|-----------------|-----------------|-------------------|-
A|-6-6-6-6-6-6-6-6-|-----------------|-----------------|-------------------|-
E|-----------------|-6-6-6-6-6-6-6-6-|-6-6-6-6-6-6-6-6-|-1-1-1-1-1-1-1-1/--|-
You... are


   +  + + +   + +    +  + + +   + +    +  + + +   + +    +  + + +   + + 
G|-----------------|-----------------|-----------------|-------------------|-
D|-----------------|-----------------|-----------------|-------------------|-
A|-6-6-6-6-6-6-6-6-|-----------------|-----------------|-------------------|-
E|-----------------|-6-6-6-6-6-6-6-6-|-6-6-6-6-6-6-6-6-|-1-1-1-1-1-1-1-1---|-
You... are


Pre-chorus 2 : 02:14
  +  + + +   + +    +  + + +   + +     +  + + +   + +    +  + + +   + + 
G|-----------------|-----------------|-----------------|-------------------|-
D|-----------------|-----------------|-----------------|-------------------|-
A|-6-6-6-6-6-6-6-6-|-----------------|-----------------|-------------------|- 
E|-----------------|-6-6-6-6-6-6-6-6-|-6-6-6-6-6-6-6-6-|-1-1-1-1-1-1-1-1/--|-
You... are, 
  +  + + +   + +    +  + + +   + +     +  + + +   + +    +  + + +   + + 
G|-----------------|-----------------|-----------------|-------------------|-
D|-----------------|-----------------|-----------------|-------------------|-
A|-6-6-6-6-6-6-6-6-|-----------------|-----------------|-------------------|- 
E|-----------------|-6-6-6-6-6-6-6-6-|-6-6-6-6-6-6-6-6-|-1-1-1-1-1-1-1-1---|-
You... are, 

Chorus instrumental: 02:26
   +  + + +   + +    +  + + +   + +     +  + + +   + +    +  + + +   + + 
G|-----------------|------------------|-----------------|------------------|-
D|-----------5-6-8-|-8-8-8-8-8-8-8-10-|-8-8-8-6-6-6-5-5-|-6-6-6-6-6-6-6----|-
A|-6-6-6---6-------|------------------|-----------------|------------------|-  X4
E|-----------------|------------------|-----------------|---------------4/-|-



 Bridge: 02:56
   +  + + +   + +    +  + + +   + +     
G|-----------------|-----------------|-
D|-----------------|-----------------|-
A|-9-9-9-9-9-9-9-9-|-9-9-9-9-9-9-9-9-|-
E|-----------------|-----------------|-
And nothing else compares


   +  + + +   + +    +  + + +   + +  +  + +   
G|-----------------|--------------------------|-
D|-----------------|--------------------------|-
A|-----------------|-11-11-11-11-11-11-11-11--|-
E|-9-9-9-9-9-9-9-9-|--------------------------|-


    +  + + +   + +    +  + + +   + +   
G|-----------------|-----------------|-
D|-----------------|-----------------|-
A|-9-9-9-9-9-9-9-9-|-9-9-9-9-9-9-9-9-|-
E|-----------------|-----------------|-
Oh nothing else compares


   +  + + +   + +    +  + + +   + +  +  + +  
G|-----------------|--------------------------|-
D|-----------------|--------------------------|-
A|-----------------|-11-11-11-11-11-11-11-11--|-
E|-9-9-9-9-9-9-9-9-|--------------------------|-


   +  + + +   + +    +  + + +   + +    
G|-----------------|-----------------|-
D|-----------------|-----------------|-
A|-9-9-9-9-9-9-9-9-|-9-9-9-9-9-9-9-9-|-
E|-----------------|-----------------|-
And nothing else compares

   +  + + +   + +    +  + + +   + +   +  + +
G|-----------------|--------------------------|-
D|-----------------|--------------------------|-
A|-----------------|-11-11-11-11-11-11-11-11--|-
E|-9-9-9-9-9-9-9-9-|--------------------------|-


   +  + + +   + +    +  + + +   + +     +  + + +   + +    +  + + +   + + 
G|-----------------|------------------|-----------------|------------------|-
D|-----------------|------------------|-----------------|------------------|-
A|-9-9-9-9-9-9-9-9-|-9-9-9-9-9-9-9-9--|-----------------|------------------|-
E|-----------------|------------------|-2-2-2-2-2-2-2-2-|-2-2-2-2-2-2-2-2/-|-

Interlude (Piano playing) : 03:25
 
|----------|------------|------------|------------||
|----------|------------|------------|------------||
|-6--------|-(6)--------|------------|------------||
|----------|------------|------------|------------||


 Reprise Chorus: 03:39
   +  + + +   + +    +  + + +   + +     +  + + +   + +    +  + + +   + + 
G|-----------------|------------------|-----------------|------------------|-
D|-----------5-6-8-|-8-8-8-8-8-8-8-10-|-8-8-8-6-6-6-5-5-|------------------|-
A|-6-6-6---6-------|------------------|-----------------|------------------|- X4
E|-----------------|------------------|-----------------|-4-4-4-4-4-4-4-/--|-

You are 
You are

   Outro
   +  + + +   + +    +  + + +   + +     +  + + +   + +    +  + + +   + + 
G|-----------------|------------------|-----------------|------------------|-
D|-----------5-6-8-|-8-8-8-8-8-8-8-10-|-8-8-8-6-6-6-5-5-|------------------|-
A|-6-6-6---6-------|------------------|-----------------|------------------|- X4
E|-----------------|------------------|-----------------|-4-4-4-4-4-4-4-/--|-
Home, home where I wanted to go 
Home, home where I wanted to go
Home, home where I wanted to go
Home, home where I wanted to go


    W          W          +W            W     4x
||-----------|----------|------------|--------||
||o----------|----------|------------|-------o||
||o-6--------|----------|------------|--8----o||
||-----------|-6--------|-(6)--------|--------||


End : 04:55
Suggest correction
Creating personal tab
Creating personal tab
You can edit any tab online and save it as your Personal.

You can edit, replace or remove any tab part or add personal notes – all changes will be seen only by you.

Personal tabs can be accessed anytime from any device, even offline.
Learn more »
comments
print report bad tab
2 comments total.
0 reply
sheila scotty 16 Jul 29, 2015 12:51 AM

Nice work... spot on !!
Thanks again,

0 reply
ryanh.bass 10 Nov 23, 2015 06:49 AM

great tab, why is it classed as an advanced song when its not even that difficult?

guest
You may want to rate the tab now too:
select rating
Wanna post a correction for this tab? Suggest correction