Oops, an error
Loading. Please wait.
We have an official Clocks tab made by UG professional guitarists. Check out the tab »
×
1,316 views 72 this week
no commentswrite comment
1 2 3 4 5
2 more votes to show rating
add to favorites
×
Save as Personal and add changes to this tab that will be seen only by you. Learn more ›
×
You can save this tab as Personal to edit and correct it or add notes. All changes will be seen only by you. Learn more »
launch autoscroll
font size
0
reset
how to read this tab
guitar tuner
backing track
0:00
0:00
edit
Autoscroll
slow
fast
+/-
esc
set tempo
stop
Author
Difficulty
intermediate
Hi,

I have not found any version here that follows the piano, so I made this tab.
I think it is fairly decent, but if you encounter any mistakes, please let me know in the comments.

I have written the finger positions beneath some parts. 

[Intro]

chords used in intro: Eb - Bbm - Fm

2x 
e|---------------------------------------------------------------------------|
B|-4-----4-----4----2-----2-----2----2-----2-----2----1-----1-----1----------|
G|---3-----3-----3----3-----3-----3----3-----3-----3----1-----1-----1--------|
D|-----5-----5----------3-----3----------3-----3----------3-----3------------|
A|-6----------------1----------------1---------------------------------------|
E|----------------------------------------------------1----------------------|
   2 1 3            2 3 4                             1 1 3
   4                1

2x
e|---------------------------------------------------------------------------|
B|-4-----4-----4----2-----2-----2----2-----2-----2----1-----1-----1----------|
G|---3-----3-----3----3-----3-----3----3-----3-----3----1-----1-----1--------|
D|-----5-----5----------3-----3----------3-----3----------3-----3------------|
A|-6-----6----------1-----1----------1-----1---------------------------------|
E|----------------------------------------------------1-----1----------------|

[Verse]

Same chords as in the intro.

As you know, the original song has only percussion and some "woo woo" in the background during the verse.
So do what you want with this part. If you're good at percussions on the guitar, do that (if you're 
singing). I like to pick the chords only once and sing over it, because I fail big time at percussions.

I'll make two examples of how you can play this, but I invite you to be creative, do what feels good. 

Verse example 1:
e|---------------------------------------------------------------------------|
B|-4-----4-----4-----2-----2-----2-----2-----2-----2-----1-----1----1--------|
G|-3-----3-----3-----3-----3-----3-----3-----3-----3-----1-----1----1--------|
D|-5-----5-----5-----3-----3-----3-----3-----3-----3-----3-----3----3--------|
A|-6---6-----6---6---1---1-----1---1---1---1-----1---1-----------------------|
E|-------------------------------------------------------1---1-----1--1------|

Verse example 2:
  (fast)            (fast)                  (fast)
e|---------------------------------------------------------------------------|
B|----4--4--4-----------2-1------2-----2--------1----------------------------|
G|---3-----------3-----3-----3---3-----3----------3--1-----------------------|
D|--5----------5------3----------3---3---------3-----------------------------|
A|-6-----------------1-----------1--------1----------------------------------|
E|--------------------------------------------1------------------------------|
   

[Chorus]

4x
e|---------------------------------------------------------------------------|
B|-4-----4-----4----2-----2-----2----2-----2-----2----1-----1-----1----------|
G|---3-----3-----3----3-----3-----3----3-----3-----3----1-----1-----1--------|
D|-----5-----5----------3-----3----------3-----3----------3-----3------------|
A|-6-----6----------1-----1----------1-----1---------------------------------|
E|----------------------------------------------------1-----1----------------|
(this includes the "you are" part, which is played the first 2 times)


[Verse 2]

Verse example 1:
e|---------------------------------------------------------------------------|
B|-4-----4-----4-----2-----2-----2-----2-----2-----2-----1-----1----1--------|
G|-3-----3-----3-----3-----3-----3-----3-----3-----3-----1-----1----1--------|
D|-5-----5-----5-----3-----3-----3-----3-----3-----3-----3-----3----3--------|
A|-6---6-----6---6---1---1-----1---1---1---1-----1---1-----------------------|
E|-------------------------------------------------------1---1-----1--1------|

Verse example 2:
  (fast)            (fast)                  (fast)
e|---------------------------------------------------------------------------|
B|----4--4--4-----------2-1------2-----2--------1----------------------------|
G|---3-----------3-----3-----3---3-----3----------3--1-----------------------|
D|--5----------5------3----------3---3---------3-----------------------------|
A|-6-----------------1-----------1--------1----------------------------------|
E|--------------------------------------------1------------------------------|


[Chorus 2]

4x
e|-------------------------------------------------------------------------|
B|-4-----4-----4----2-----2-----2----2-----2-----2----1-----1-----1--------|
G|---3-----3-----3----3-----3-----3----3-----3-----3----1-----1-----1------|
D|-----5-----5----------3-----3----------3-----3----------3-----3----------|
A|-6-----6----------1-----1----------1-----1-------------------------------|
E|----------------------------------------------------1-----1--------------|
(all 4 times the "you are" part)


[Bridge]

Chords used in bridge: F# - C# - G#

You can follow this part the same way you did the verse.
But if you want to play this part as in the songs you can do it like this (the chords beneath the asterisk 
(*) have to be strummed hard, listen to the song):
 
3x F#                              C#              G#  
e|-2-2-2-2-2-2-2-2-2-2-2-2-2-2-2-2-4-4-4-4-4-4-4-4-4-4-4-4-4-4-4-4-----------|
B|-2-2-2-2-2-2-2-2-2-2-2-2-2-2-2-2-6-6-6-6-6-6-6-6-4-4-4-4-4-4-4-4-----------|
G|-3-3-3-3-3-3-3-3-3-3-3-3-3-3-3-3-6-6-6-6-6-6-6-6-5-5-5-5-5-5-5-5-----------|
D|-4-4-4-4-4-4-4-4-4-4-4-4-4-4-4-4-6-6-6-6-6-6-6-6-6-6-6-6-6-6-6-6-----------|
A|-4-4-4-4-4-4-4-4-4-4-4-4-4-4-4-4-4-4-4-4-4-4-4-4-6-6-6-6-6-6-6-6-----------|
E|-2-2-2-2-2-2-2-2-2-2-2-2-2-2-2-2-----------------4-4-4-4-4-4-4-4-----------|
   *     *     *   *     *     *   *     *     *   *     *     *

You just keep playing a normal F# without the pinky on the sixth fret on the B string if your hands aren't 
large enough
   F#
e|-2-2-2-2-2-2-2-2-2-2-2-2-2-2-2-2-2-2-2-2-2-2-2-2-2-2-2-2-2-2-2-2-----------|
B|-2-2-2-2-2-2-2-2-6-6-6-6-6-6-6-6-2-2-2-2-2-2-2-2-6-6-6-6-6-6-6-6-----------|
G|-3-3-3-3-3-3-3-3-3-3-3-3-3-3-3-3-3-3-3-3-3-3-3-3-3-3-3-3-3-3-3-3-----------|
D|-4-4-4-4-4-4-4-4-x-x-x-x-x-x-x-x-4-4-4-4-4-4-4-4-x-x-x-x-x-x-x-x-----------|
A|-4-4-4-4-4-4-4-4-4-4-4-4-4-4-4-4-4-4-4-4-4-4-4-4-4-4-4-4-4-4-4-4-----------|
E|-2-2-2-2-2-2-2-2-2-2-2-2-2-2-2-2-2-2-2-2-2-2-2-2-2-2-2-2-2-2-2-2-----------|
   *     *     *   *     *     *   *     *     *   *     *     *

[Intro + outro]

2x 
e|---------------------------------------------------------------------------|
B|-4-----4-----4----2-----2-----2----2-----2-----2----1-----1-----1----------|
G|---3-----3-----3----3-----3-----3----3-----3-----3----1-----1-----1--------|
D|-----5-----5----------3-----3----------3-----3----------3-----3------------|
A|-6----------------1----------------1---------------------------------------|
E|----------------------------------------------------1----------------------|
________________________________________________________________________________

This part can be tricky to play. Leave the bass notes out if it's too much for you. 
The first finger on the fifth fret can be difficult for smaller hands, so I'll add an alternative.

8x
e|--------------------------------------------------|-------------------------|
B|-9-8---9-8---9-8-9-8---9-8---9-8--9-8---9-8---9-8-|--9-8---9-8---9-8--------|
G|-----8-----8---------6-----6----------6-----6-----|------5-----5------------|
D|--------------------------------------------------|-------------------------|
A|-6-----6-----6------------------------------------|--8-----8-----8----------|
E|-----------------6-----6-----6----6-----6-----6---|-------------------------|
   4 3 2           4 3 1                               4 3 1
   1               1                                   2

or

8x
e|--------------------------------------------------|------------------------|
B|-9p8---9p8---9p8-9p8---9p8---9p8--9p8---9p8---9p8-|--9p8---9p8---9p8-------|
G|-----8-----8---------6-----6----------6-----6-----|------5-----5-----------|
D|--------------------------------------------------|------------------------|
A|-6-----6-----6------------------------------------|--8-----8-----8---------|
E|-----------------6-----6-----6----6-----6-----6---|------------------------|

Alternative (easier) ending:

   Fm7
e|----------------------------| 
B|--9p8----9p8----9p8---------|
G|----------------------------|
D|------11-----11-----11------|
A|--8------8------8-----------|
E|----------------------------|
    2 1 3 
    1 


Good luck and have fun!



************************************

| p  Pull-off

************************************

            
            
Suggest correction
Creating personal tab
Creating personal tab
You can edit any tab online and save it as your Personal.

You can edit, replace or remove any tab part or add personal notes – all changes will be seen only by you.

Personal tabs can be accessed anytime from any device, even offline.
Learn more »
Give kudos to tab author, rate the tab!
1 2 3 4 5
comments
print report bad tab
guest
You may want to rate the tab now too:
select rating
Wanna post a correction for this tab? Suggest correction