Oops, an error
Loading. Please wait.

Death And All His Friends Tab

version 3
version 3

Whole song

Interactive

9,337 views 9 this week
no commentswrite comment
1 2 3 4 5
x 5
add to favorites
launch autoscroll
font size
0
reset
how to read this tab
guitar tuner
Autoscroll
slow
fast
+/-
esc
set tempo
stop
Help us to improve Ultimate-Guitar.com Take our survey!
×
Arisit:Coldplay
Song:Death and all his friends

Tuning : E A D G B E (standard)


0:38
E-15-11----------------------11----------------------------------------|
B---------------11---------13--13--11-----11---------------------------|
G--------12-----------------------------12--12--10----12---10----------|
D-----------------------------------------------------------------13---|
A----------------------------------------------------------------------|
E----------------------------------------------------------------------|

E-15-11---------10b---|
B--------13-----------|
G---------------------|
D---------------------|
A---------------------|
E---------------------|

E---11----------------------------------------|X2
B-13--13--11-----11---------------------------|
G--------------12--12--10----12---10----------|
D----------------------------------------13---|
A---------------------------------------------|
E---------------------------------------------|


1:21
E---------------------------------------------------------------------------|
B---------------------------------------------------------------------------|
G---------------------------------------------------------------------------|
D-8--8------8-8------8-8----------8----8-------------8-8---------8--8-------|
A-----11-10----11-10----11-10------10---10-----11-10----11-10--------11-10--|
E---------------------------------------------------------------------------|

---------------------------------------------------------|
---------------------------------------------------------|
---------------------------------------------------------|X2
------8-8------8-8----------10---10-------------8-8------|
---------11-10----11-10-------10---10-----11-10----11-10-|
---------------------------------------------------------|


E-----------------------------------------------|
B-----------------------------------------------|
G-----------------------------------------------|
D-------10-10-10-10-10-10-----8----8-8-8-8-8-8--|
A-------10-10-10-10-10-10-----8----8-8-8-8-8-8--|
E-------8--8--8--8--8--8------6----6-6-6-6-6-6--|

E---------------------------------------------------------------------------|
B---------------------------------------------------------------------------|
G---------------------------------------------------------------------------|
D-8--8------8-8------8-8----------8----8-------------8-8---------8--8-------|
A-----11-10----11-10----11-10------10---10-----11-10----11-10--------11-10--|
E---------------------------------------------------------------------------|

-------------------------------------------------------|
-------------------------------------------------------|
-------------------------------------------------------|
----8-8------8-8----------10---10-------------8-8------|
-------11-10----11-10-------10---10-----11-10----11-10-|
-------------------------------------------------------|

E-----------------------------------------------|
B-----------------------------------------------|
G-----------------------------------------------|
D-------10-10-10-10-10-10-----8----8-8-8-8-8-8--|
A-------10-10-10-10-10-10-----8----8-8-8-8-8-8--|
E-------8--8--8--8--8--8------6----6-6-6-6-6-6--|

E--------------------------------------------------------------------|
B--------------------------------------------------------------15-15-|
G--------------------------------------------------------------------|
D-8--8------8-8------8-8----------8----8------------8-8--------------|
A-----11-10----11-10----11-10------10---10-----11-10----11-10--------|
E--------------------------------------------------------------------|


2:23
E---------------------------------------------------------15-15-15----------|
B------13-13b-13---------16-16---15-15b-15----------16-18-------------------|
G---------------------------------------------------------------------------|
D---------------------------------------------------------------------------|
A---------------------------------------------------------------------------|
E---------------------------------------------------------------------------|

-----------------------------------|X6
--15-15------13------------15b-----|
-----------------------------------|
-----------------------------------|
-----------------------------------|
-----------------------------------|
Suggest correction
comments
print report bad tab
guest
You may want to rate the tab now too:
select rating
Wanna post a correction for this tab? Suggest correction