Oops, an error
Loading. Please wait.

Dont Let It Break Your Heart tab

version 1
version 1

Whole song

  • This is what they play in this video: https://www.... Show more

Interactive

64 views 3 this week
no commentswrite comment
1 2 3 4 5
3 more votes to show rating
add to favorites
×
Save as Personal and add changes to this tab that will be seen only by you. Learn more ›
×
You can save this tab as Personal to edit and correct it or add notes. All changes will be seen only by you. Learn more »
launch autoscroll
font size
0
reset
how to read this tab
guitar tuner
edit
Autoscroll
slow
fast
+/-
esc
set tempo
stop
Guitar 1: Lead, Tuning: Eb Ab Db Gb Bb eb
Guitar 2: Rhythm, Tuning: E A D Gb Bb d

[Intro]
Guitar 1:
eb|---------------------------|----------------|--------------------|------------|
Bb|--8---8---8---8---8--8---8-|--8--8--8--8--8-|--------------------|------------|
Gb|-10--10--10--10--10-10--10-|-10-10-10-10-10-|-5--5--5--5--5-5--5-|-4--4-4-4-4-|
Db|-10--10--10--10--10-10--10-|-10-10-10-10-10-|-5--5--5--5--5-5--5-|-5--5-5-5-5-|
Ab|--8---8---8---8---8--8---8-|--8--8--8--8--8-|-5--5--5--5--5-5--5-|-5--5-5-5-5-|
Eb|---------------------------|----------------|-3--3--3--3--3-3--3-|-3--3-3-3-3-|

eb|--------------------|------------|---------------------------|-----------------|
Bb|-9--9--9--9--9-9--9-|-9--9-9-9-9-|-10--10--10--10--10-10--10-|-10---8--8--8--8-|
Gb|-9--9--9--9--9-9--9-|-9--9-9-9-9-|-10--10--10--10--10-10--10-|-10---9--9--9--9-|
Db|-9--9--9--9--9-9--9-|-9--9-9-9-9-|-10--10--10--10--10-10--10-|-10--10-10-10-10-|
Ab|-7--7--7--7--7-7--7-|-7--7-7-7-7-|--8---8---8---8---8--8---8-|--8---8--8--8--8-|
Eb|--------------------|------------|---------------------------|-----------------|

[Main riff]
Guitar 1:
eb|---------------------|----------------|--------------------|----------|
Bb|12-16p14-12----12----|-12----12----12-|---12---12-/14--\12-|-12---12--|
Gb|------------13----11-|----------------|--------------------|----------|
Db|---------------------|----13----12----|-9----9----/11--\9--|----9-----|
Ab|---------------------|----------------|--------------------|----------|
Eb|---------------------|----------------|--------------------|----------|

[Verse 1]
Guitar 1:
eb|-------------|-------------|-------------|-----------|
Bb|----17----17-|----16----16-|----14----14-|---12---12-|
Gb|-------------|-------------|-------------|-----------| x3
Db|-14----14----|-13----13----|-11----11----|-9----9----|
Ab|-------------|-------------|-------------|-----------|
Eb|-------------|-------------|-------------|-----------|

eb|-------------|-------------|-----------|-----------|
Bb|----17----17-|----16----16-|---11---11-|---12---12~|
Gb|-------------|-------------|-----------|-----------|
Db|-14----14----|-13----13----|-8----8----|-9----9----|
Ab|-------------|-------------|-----------|-----------|
Eb|-------------|-------------|-----------|-----------|

[Chorus 1]
Guitar 1:
eb|--------------------|------------|--------------------|------------|
Bb|--------------------|------------|--------------------|------------|
Gb|-1--1--1--1--1-1--1-|-1--1-1-1-1-|-3--3--3--3--3-3--3-|-3--3-3-3-3-|
Db|-2--2--2--2--2-2--2-|-2--2-2-2-2-|-5--5--5--5--5-5--5-|-4--4-4-4-4-|
Ab|-2--2--2--2--2-2--2-|-2--2-2-2-2-|-5--5--5--5--5-5--5-|-4--4-4-4-4-|
Eb|-0--0--0--0--0-0--0-|-0--0-0-0-0-|-2--2--2--2--2-2--2-|-2--2-2-2-2-|

eb|--------------------|------------|---------------------------|-----------------|
Bb|-9--9--9--9--9-9--9-|-9--9-9-9-9-|-10--10--10--10--10-10--10-|-10---8--8--8--8-|
Gb|-9--9--9--9--9-9--9-|-9--9-9-9-9-|-10--10--10--10--10-10--10-|-10---9--9--9--9-|
Db|-9--9--9--9--9-9--9-|-9--9-9-9-9-|-10--10--10--10--10-10--10-|-10--10-10-10-10-| x2
Ab|-7--7--7--7--7-7--7-|-7--7-7-7-7-|--8---8---8---8---8--8---8-|--8---8--8--8--8-|
Eb|--------------------|------------|---------------------------|-----------------|

[Main riff]
Guitar 1:
  Eb                     Cm               Eb
eb|---------------------|----------------|--------------------|----------|
Bb|12-16p14-12----12----|-12----12----12-|---14---14-/14--\12-|-12---12--|
Gb|------------13----11-|----------------|--------------------|----------|
Db|---------------------|----13----11----|-9----9----/11--\9--|----9-----|
Ab|---------------------|----------------|--------------------|----------|
Eb|---------------------|----------------|--------------------|----------|

[Verse 2]
Guitar 1:
eb|-------------|-------------|-------------|-----------|
Bb|----17----17-|----16----16-|----14----14-|---12---12-|
Gb|-------------|-------------|-------------|-----------|
Db|-14----14----|-13----13----|-11----11----|-9----9----|
Ab|-------------|-------------|-------------|-----------|
Eb|-------------|-------------|-------------|-----------|

eb|-------------|-------------|--------------|-----------|
Bb|----17----17-|----16----16-|----11--11-11~|---12---12-|
Gb|-------------|-------------|--------------|-----------|
Db|-14----14----|-13----13----|-8------------|-9----9----|
Ab|-------------|-------------|--------------|-----------|
Eb|-------------|-------------|--------------|-----------|

(On we crawl...)
Guitar 1:
eb|-0--0--0--0--0-0-|-0--0-0-0-0-|
Bb|-0--0--0--0--0-0-|-0--0-0-0-0-|
Gb|-1--1--1--1--1-1-|-1--1-1-1-1-| x2
Db|-2--2--2--2--2-2-|-2--2-2-2-2-|
Ab|-2--2--2--2--2-2-|-2--2-2-2-2-|
Eb|-0--0--0--0--0-0-|-0--0-0-0-0-|

Guitar 2:
 ed|-1--1--1--1--1-1-|-1--1-1-1-1-|
Bb|-0--0--0--0--0-0-|-0--0-0-0-0-|
Gb|-0--0--0--0--0-0-|-0--0-0-0-0-| x2
 D|-0--0--0--0--0-0-|-0--0-0-0-0-|
 A|-----------------|------------|
 E|-----------------|------------|

[Main riff]
Guitar 1:
eb|---------------------|----------------|--------------------|----------|
Bb|12-16p14-12----12----|-12----12----12-|---12---12-/14--\12-|-12---12--|
Gb|------------13----11-|----------------|--------------------|----------|
Db|---------------------|----13----11----|-9----9----/11--\9--|----9-----|
Ab|---------------------|----------------|--------------------|----------|
Eb|---------------------|----------------|--------------------|----------|

Guitar 2:
  Eb        Cm       Eb
 d|-/13--13-13--13-13-13-|-12--12-12--12-12-12-|-7--7-7--7-7-7-|-8--8-8--8-8-8-|
Bb|---0---0--0---0--0--0-|--0---0--0---0--0--0-|-0--0-0--0-0-0-|-0--0-0--0-0-0-|
Gb|---0---0--0---0--0--0-|--0---0--0---0--0--0-|-0--0-0--0-0-0-|-0--0-0--0-0-0-|
 D|-/13--13-13--13-13-13-|-12--12-12--12-12-12-|-7--7-7--7-7-7-|-8--8-8--8-8-8-|
 A|----------------------|---------------------|---------------|---------------|
 E|----------------------|---------------------|---------------|---------------|

[Verse 3](And it's so...)
Guitar 1:
eb|-----------------------------|-----------------------------|-----------------------------|
Bb|-4--4--4-4-4-4--4--4-4-4-4-4-|-0--0--0-0-0-0--0--0-0-0-0-0-|-4--4--4-4-4-4--4--4-4-4-4-4-|
Gb|-5--5--5-5-5-5--5--5-5-5-5-5-|-1--1--1-1-1-1--1--1-1-1-1-1-|-5--5--5-5-5-5--5--5-5-5-5-5-|
Db|-6--6--6-6-6-6--6--6-6-6-6-6-|-2--2--2-2-2-2--2--2-2-2-2-2-|-6--6--6-6-6-6--6--6-6-6-6-6-|
Ab|-6--6--6-6-6-6--6--6-6-6-6-6-|-2--2--2-2-2-2--2--2-2-2-2-2-|-6--6--6-6-6-6--6--6-6-6-6-6-|
Eb|-4--4--4-4-4-4--4--4-4-4-4-4-|-0--0--0-0-0-0--0--0-0-0-0-0-|-4--4--4-4-4-4--4--4-4-4-4-4-|

eb|-----------------------------|
Bb|-----------------------------|
Gb|-9--9--9-9-9-9--9--9-9-9-9-9-|
Db|-9--9--9-9-9-9--9--9-9-9-9-9-|
Ab|-7--7--7-7-7-7--7--7-7-7-7-7-|
Eb|-----------------------------|

Guitar 2:
 d|-1--1--1-1-1-1--1--3-3-3-3-3-|-0--0--0-0-0-0--0--0-0-0-0-0-|
Bb|-0--0--0-0-0-0--0--0-0-0-0-0-|-0--0--0-0-0-0--0--0-0-0-0-0-|
Gb|-0--0--0-0-0-0--0--0-0-0-0-0-|-0--0--0-0-0-0--0--0-0-0-0-0-| x2
 D|-0--0--0-0-0-0--0--0-0-0-0-0-|-1--1--1-1-1-1--1--1-1-1-1-1-|
 A|-----------------------------|-----------------------------|
 E|-----------------------------|-----------------------------|

(Through my veins is flowing)
Guitar 1:
eb|-------------|-------------|------------|------------|
Bb|----17----17-|----16----16-|---11----11~|---12---12~~|
Gb|-------------|-------------|------------|------------| 
Db|-14----14----|-13----13----|-8------8---|-9----9-----|
Ab|-------------|-------------|------------|------------|
Eb|-------------|-------------|------------|------------|

Guitar 2:
 d|-/13--13-13--13-13-13-|-12--12-12--12-12-12-|-7--7-7--7-7-7-|-8--8-8--8-8-8-|
Bb|---0---0--0---0--0--0-|--0---0--0---0--0--0-|-0--0-0--0-0-0-|-0--0-0--0-0-0-|
Gb|---0---0--0---0--0--0-|--0---0--0---0--0--0-|-0--0-0--0-0-0-|-0--0-0--0-0-0-|
 D|-/13--13-13--13-13-13-|-12--12-12--12-12-12-|-7--7-7--7-7-7-|-8--8-8--8-8-8-|
 A|----------------------|---------------------|---------------|---------------|
 E|----------------------|---------------------|---------------|---------------|

[Main riff]
Guitar 1:
eb|----------------------|----------------|-------------------|-----------|
Bb|-12-16p14-12----12----|-12----12----12-|---12---12-/14--\12|-17~~-19~~-|
Gb|-------------13----11-|----------------|-------------------|-----------|
Db|----------------------|----13----11----|-9----9----/11--\9-|-----------|
Ab|----------------------|----------------|-------------------|-----------|
Eb|----------------------|----------------|-------------------|-----------|

Guitar 2:
 d|-12--12-12--12-12-12-|-11--11-11--11-11-11-|-7--7-7--7-7-7-|-12--12-12--12-12-12-|
Bb|--0---0--0---0--0--0-|--0---0--0---0--0--0-|-0--0-0--0-0-0-|--0---0--0---0--0--0-|
Gb|--0---0--0---0--0--0-|--0---0--0---0--0--0-|-0--0-0--0-0-0-|--0---0--0---0--0--0-|
 D|-12--12-12--12-12-12-|-11--11-11--11-11-11-|-7--7-7--7-7-7-|-12--12-12--12-12-12-|
 A|---------------------|---------------------|---------------|---------------------|
 E|---------------------|---------------------|---------------|---------------------|

[Chorus 2]
Guitar 1:
eb|--------------------|------------|--------------------|------------|
Bb|--------------------|------------|--------------------|------------|
Gb|-1--1--1--1--1-1--1-|-1--1-1-1-1-|-3--3--3--3--3-3--3-|-3--3-3-3-3-|
Db|-2--2--2--2--2-2--2-|-2--2-2-2-2-|-5--5--5--5--5-5--5-|-4--4-4-4-4-|
Ab|-2--2--2--2--2-2--2-|-2--2-2-2-2-|-5--5--5--5--5-5--5-|-4--4-4-4-4-|
Eb|-0--0--0--0--0-0--0-|-0--0-0-0-0-|-2--2--2--2--2-2--2-|-2--2-2-2-2-|

eb|--------------------|------------|---------------------------|-----------------|
Bb|-9--9--9--9--9-9--9-|-9--9-9-9-9-|-10--10--10--10--10-10--10-|-10---8--8--8--8-|
Gb|-9--9--9--9--9-9--9-|-9--9-9-9-9-|-10--10--10--10--10-10--10-|-10---9--9--9--9-|
Db|-9--9--9--9--9-9--9-|-9--9-9-9-9-|-10--10--10--10--10-10--10-|-10--10-10-10-10-|x2
Ab|-7--7--7--7--7-7--7-|-7--7-7-7-7-|--8---8---8---8---8--8---8-|--8---8--8--8--8-|
Eb|--------------------|------------|---------------------------|-----------------|

Guitar 2:
 d|-12--12-12-12--12-12-12--12-12-12--12-12-|-11--11-11-11--11-11--9---9--9--9---9--9-|
Bb|--0---0--0--0---0--0--0---0--0--0---0--0-|--0---0--0--0---0--0-11--11-11-11--11-11-|
Gb|--0---0--0--0---0--0--0---0--0--0---0--0-|--0---0--0--0---0--0--0---0--0--0---0--0-|
 D|-12--12-12-12--12-12-12--12-12-12--12-12-|-11--11-11-11--11-11-11--11-11-11--11-11-|
 A|-----------------------------------------|-----------------------------------------|
 E|-----------------------------------------|-----------------------------------------|

 d|-12--12-12-12--12-12-12--12-12-12--12-12-|-11--11-11-11--11-11-7--7-7-7--7-7-|
Bb|--0---0--0--0---0--0--0---0--0--0---0--0-|--0---0--0--0---0--0-0--0-0-0--0-0-|
Gb|--0---0--0--0---0--0--0---0--0--0---0--0-|--0---0--0--0---0--0-0--0-0-0--0-0-|
 D|-12--12-12-12--12-12-12--12-12-12--12-12-|-11--11-11-11--11-11-7--7-7-7--7-7-|
 A|-----------------------------------------|-----------------------------------|
 E|-----------------------------------------|-----------------------------------|

 d|-12--12-12-12--12-12-12--12-12-12--12-12-|-11--11-11-11--11-11--9---9--9--9---9--9-|
Bb|--0---0--0--0---0--0--0---0--0--0---0--0-|--0---0--0--0---0--0-11--11-11-11--11-11-|
Gb|--0---0--0--0---0--0--0---0--0--0---0--0-|--0---0--0--0---0--0--0---0--0--0---0--0-|
 D|-12--12-12-12--12-12-12--12-12-12--12-12-|-11--11-11-11--11-11-11--11-11-11--11-11-|
 A|-----------------------------------------|-----------------------------------------|
 E|-----------------------------------------|-----------------------------------------|

 d|-12--12-12-12--12-12-12--12-12-12--12-12-|-11--11-11-11--11-11-13--13-13-13--13-13-|
Bb|--0---0--0--0---0--0--0---0--0--0---0--0-|--0---0--0--0---0--0--0---0--0--0---0--0-|
Gb|--0---0--0--0---0--0--0---0--0--0---0--0-|--0---0--0--0---0--0--0---0--0--0---0--0-|
 D|-12--12-12-12--12-12-12--12-12-12--12-12-|-11--11-11-11--11-11-13--13-13-13--13-13-|
 A|-----------------------------------------|-----------------------------------------|
 E|-----------------------------------------|-----------------------------------------|

[Main riff]
eb|---------------------|----------------|--------------------|----------|
Bb|12-16p14-12----12----|-12----12----12-|---12---12-/14--\12-|-12---12--|
Gb|------------13----11-|----------------|--------------------|----------|
Db|---------------------|----13----12----|-9----9----/11--\9--|----9-----|
Ab|---------------------|----------------|--------------------|----------|
Eb|---------------------|----------------|--------------------|----------|

Guitar 2:                                  (Come on, baby...)
 d|-14--14-14-14--14-14-14--14-14-14--14-14-|-14--14-14-14--14-14-14--14-14-14--14-14-|
Bb|--0---0--0--0---0--0--0---0--0--0---0--0-|--0---0--0--0---0--0--0---0--0--0---0--0-|
Gb|--0---0--0--0---0--0--0---0--0--0---0--0-|--0---0--0--0---0--0--0---0--0--0---0--0-|
 D|-14--14-14-14--14-14-14--14-14-14--14-14-|-14--14-14-14--14-14-14--14-14-14--14-14-|
 A|-----------------------------------------|-----------------------------------------|
 E|-----------------------------------------|-----------------------------------------|

 d|-7--7-7-7--7-7-7--7-7-7--7-7-|-11--11-11-11--11-11-11--11-11-11--11-11-|
Bb|-0--0-0-0--0-0-0--0-0-0--0-0-|--0---0--0--0---0--0--0---0--0--0---0--0-|
Gb|-0--0-0-0--0-0-0--0-0-0--0-0-|--0---0--0--0---0--0--0---0--0--0---0--0-|
 D|-7--7-7-7--7-7-7--7-7-7--7-7-|-11--11-11-11--11-11-11--11-11-11--11-11-|
 A|-----------------------------|-----------------------------------------|
 E|-----------------------------|-----------------------------------------|

[Solo](Don´t let it...)
Guitar 1:
Tp................................
eb|--11--|--13-14--|--16-9--|--7--|
Bb|---0--|---0--0--|---0-0--|--0--|
Gb|---8--|--10-12--|--14-7--|--5--| x2
Db|------|---------|--------|-----|
Ab|------|---------|--------|-----|
Eb|------|---------|--------|-----|

Guitar 2:
Tp..................................
 d|--15--|--16-18--|--20-13--|--11--|
Bb|---0--|---0--0--|---0--0--|---0--|
Gb|---0--|---0--0--|---0--0--|---0--| x2
 D|--15--|--16-18--|--20-13--|--11--|
 A|------|---------|---------|------|
 E|------|---------|---------|------|

************************************

| ~     vibrato
| p     pull off
| /     slide up
| \     slide down
| Tp    tremolo picking



************************************

            
            
Suggest correction
Creating personal tab
Creating personal tab
You can edit any tab online and save it as your Personal.

You can edit, replace or remove any tab part or add personal notes – all changes will be seen only by you.

Personal tabs can be accessed anytime from any device, even offline.
Learn more »
Give kudos to tab author, rate the tab!
1 2 3 4 5
comments
print report bad tab
guest
You may want to rate the tab now too:
select rating
Wanna post a correction for this tab? Suggest correction