Oops, an error
Loading. Please wait.
We have Chord Pro version of Dont Panic.
It's the closest thing you can get to the original song and it has interactive parts. Check out the tab »
×
6,297 views 3 this week
1 commentread comment
1 2 3 4 5
x 4
add to favorites
×
Save as Personal and add changes to this tab that will be seen only by you. Learn more ›
×
You can save this tab as Personal to edit and correct it or add notes. All changes will be seen only by you. Learn more »
launch autoscroll
font size
0
reset
guitar tuner
edit
Autoscroll
slow
fast
+/-
esc
set tempo
stop
Coldplay - Don't panic 

Easy but a brilliant opener to a brilliant album! 

Verse: 

G|-------------------- 
D|-------------------- 
A|-0000-3333-88888888- 
E|-------------------- 

Chorus: 

(we live in a ........) 
G|--------------------------- 
D|---------------------55555- 
A|-5-55-55-55-50-00-00------- 
E|--------------------------- 

G|------------------------ 
D|------------------------ 
A|-5-55-55-55-53-33-33-33- 
E|------------------------ 

Submitted by Adam Sewell. 

            
            
Suggest correction
Creating personal tab
Creating personal tab
You can edit any tab online and save it as your Personal.

You can edit, replace or remove any tab part or add personal notes – all changes will be seen only by you.

Personal tabs can be accessed anytime from any device, even offline.
Learn more »
comments
print report bad tab
1 comment total.
0 reply
crspeedemon 10 Jan 10, 2009 05:28 PM

It's ok, i guess... theres no detailed parts shown, just the basic jist of the song..... not even that when it comes to the chours...

Chorus:

(we live in a ........)
G|---------------------------
D|---------------------55555-
A|-5-55-55-55-50-00-00-------
E|---------------------------

G|------------------------
D|------------------------
A|-5-55-55-55-5-----------
E|-------------1-11-11-11-

guest
Wanna post a correction for this tab? Suggest correction