Oops, an error
Loading. Please wait.

Dont Panic Tab

version 1
122,594 views 39 this week
8 commentsread comments
1 2 3 4 5
x 12
add to favorites
launch autoscroll
font size
0
reset
how to read this tab
guitar tuner
×
Best way to learn
"Dont Panic"
Autoscroll
slow
fast
+/-
esc
set tempo
stop
Coldplay, Don't panic
Jehan Sauvage, googootabber@caramail.com
artist : Coldplay
song : Don't Panic
album : Parachutes
tabbed by Jehan Sauvage, send corrections to googootabber@caramail.com

chords :
Am(x02210)
C(x32010)
Dm(xx0231)
G(320003)
FM7(033210)

[INTRO](both guitars)
[play riff1x2]
[riff 1]
e|-0--x-0---0---0-0x-0--0-0--------------------------------------------------|
B|-1--x-1---1---0h1x-1--1-1--------------------------------------------------|
G|-2--x-2---2---0h2x-2--2-2--------------------------------------------------|
D|-3--x-3---3---3-3x-3--3-3--------------------------------------------------|
A|-3--x-3---3---3-3x-3--3-3--------------------------------------------------|
E|---------------------------------------------------------------------------|

[VERSE 1]
guitar2 plays Am-C and riff1 two times

[CHORUS 1]
[guitar 2]plays Dm-Am-G then Dm-riff1 x1
[guitar 1]plays riff2, riff3, riff2 and then riff4

[riff 2]
e|-5-5-5-5-5-5-5-5-7-7-7-7-8-8-8-8----|
b|------------------------------------|
g|------------------------------------|

[riff 3](with crunchy distortion)
e|-5-5-5-5-5-5----12----15-----13-----12/5----------------------------------------|
B|-5-5-5-5-5-5----12-12----12-----12----------------------------------------------|
G|-2-2-2-2-2-2--------------------------------------------------------------------|
D|-2-2-2-2-2-2--------------------------------------------------------------------|
A|--------------------------------------------------------------------------------|
E|--------------------------------------------------------------------------------|

[riff 4]
e|-----5--------|
b|-5h6---5h6p5--| x2
g|--------------|

[VERSE 2]
same as verse1

[CHORUS 2]
same as chorus1

[BRIDGE 1]
[guitar2 plays the same chords as the verse]
[guitar1 plays riff5x2]
[riff 5]
e|--------------------------------------|
b|-5--8-6-5-5--8-6-5--------------------|
g|-------------------7-5----------------|

[CHORUS 3]
same as other choruses

[BRIDGE 2]
[guitar 2]plays Dm-riff1 two times
[guitar 1]plays riff6 and riff4 two times
[riff 6](crunchy distortion)
e|-----12---12---12---12---12---12----|
b|-/13---13---13---13---13---13-------|
g|------------------------------------|

[OUTRO]
same as verses
end on FM7
Suggest correction
comments
print report bad tab
8 comments total. Showing first comments.
0 reply
sparky_david 10 Mar 28, 2005 07:00 PM

this tab is really badly laid out

0 reply
johnc27 71 Apr 01, 2005 07:00 PM

yes it is badly laid out, but completely acrruate on the intro and fairly accruate on the rest of it

0 reply
Mace_37 40 May 16, 2005 08:00 PM

french people are dirty

guest
You may want to rate the tab now too:
select rating
Wanna post a correction for this tab? Suggest correction