Oops, an error
Loading. Please wait.
We have Chord Pro version of Dont Panic.
It's the closest thing you can get to the original song and it has interactive parts. Check out the tab »
×

Dont Panic tab

4 views 1 this week
no commentswrite comment
1 2 3 4 5
2 more votes to show rating
add to favorites
×
Save as Personal and add changes to this tab that will be seen only by you. Learn more ›
×
You can save this tab as Personal to edit and correct it or add notes. All changes will be seen only by you. Learn more »
launch autoscroll
font size
0
reset
how to read this tab
guitar tuner
edit
Autoscroll
slow
fast
+/-
esc
set tempo
stop
About this tab version
Mine has all the guitar parts, including a little keyboard part arranged for guitar. Was this info helpful? Yes No
                                   DON'T PANIC
                             As recorded by Coldplay
                        (From the 2000 Album PARACHUTES)


Gtr I (E A D G B E) - 'Clean guitar'
Gtr II (E A D G B E) - 'Acoustic guitar'
Gtr III (E A D G B E) - 'Guitar 2 w/ slight dist. and slight phaser'
Gtr IV (E A D G B E) - 'Keyboard effects arr. for guitar'

 Intro
  Moderately Q=120
  Fmaj7
 4/4
  Gtr I
  Q  E E +E  E E E    E   E  E E +E  E  E   E
|------0-(0)-------|-----------0-(0)-----------|
|-1----1-(1)-------|-(0)h(1)---1-(1)---(1)p(0)-|
|-2----2-(2)-2-x-2-|--0h==2--x-2-(2)-2--2p==0--|
|-3----3-(3)-3-x-3-|--3--(3)-x-3-(3)-3--3--(3)-|
|-3----3-(3)-3-x-3-|--3--(3)-x-3-(3)-3--3--(3)-|
|-1----------------|---------------------------|
|
| Gtr II
| W                   W
|------------------|---------------------------|
|------------------|---------------------------|
|------------------|---------------------------|
|------------------|---------------------------|
|------------------|---------------------------|
|------------------|---------------------------|


                                                Am/C
   E   E  E E +E  E  E   E     E   E  E E +E  E E  E
|-----------0-(0)-----------|-----------0-(0)----------|
|-(0)h(1)---1-(1)---(1)p(0)-|-(0)h(1)---1-(1)-----(1)--|
|--0h==2--x-2-(2)-2--2p==0--|--0h==2--x-2-(2)-2-2--2---|
|--3--(3)-x-3-(3)-3--3--(3)-|--3--(3)-x-3-(3)-3-2--2---|
|--3--(3)-x-3-(3)-3--3--(3)-|--3--(3)-x-3-(3)-3--------|
|---------------------------|--------------------------|
|
|  Q      E E +E  E  E   E     E   E  E E +E  E E  E
|-^0--------0-(0)-----------|--0---0----0-(0)----------|
|-^1--------1-(1)-1---------|--1---1----1-(1)-1-1--1---|
|-^2------x-2-(2)-2--x---2--|--2---2--x-2-(2)-2-2--2---|
|-^3------x-3-(3)-3--x---3--|--3---3--x-3-(3)-3-2--2---|
|-^3------x-3-(3)-3--x---3--|--3---3--x-3-(3)-3-3--3---|
|---------------------------|--------------------------|


   Verse
    Am                  C
    E E E E +E  E E E   E E E E +E  E E E
||--0-----0-(0)-------|-0-----0-(0)-------|
||o-1-1-x-1-(1)-1-x---|-1-1---1-(1)-1-----|
||--2-2-x-2-(2)-2-x-2-|-0-0-x-0-(0)-0-x-0-|
||--2-2-x-2-(2)-2-x-2-|-2-2-x-2-(2)-2-x-2-|
||o-0-0---0-(0)-0---0-|-3-3-x-3-(3)-3-x-3-|
||--------------------|-------------------|
|
|   Q   E E +E  E E E   Q   E E +E  E E E
||--0-----0-(0)-------|-0-----0-(0)-------|
||o-1-----1-(1)-------|-1-----1-(1)-------|
||--2---x-2-(2)-2-x---|-0---x-0-(0)-0-x-0-|
||--2---x-2-(2)-2-x-2-|-2---x-2-(2)-2-x-2-|
||o-0---x-0-(0)-0-x-0-|-3---x-3-(3)-3-x-3-|
||--------------------|-------------------|
|
|   Gtr IV
|   <                   <
|   W                   W
||--5-----------------|-0-----------------|
||o-5-----------------|-1-----------------|
||--5-----------------|-0-----------------|
||--------------------|-------------------|
||o-------------------|-------------------|
||--------------------|-------------------|


  Fmaj7/C
  Q  E E +E  E +E   E     E   E  +E  E +E  E  E   E
|-0----0-(0)-----------|-------------0-(0)------------|
|-1----1-(1)-1-(1)-(0)-|-(0)h(1)-(1)-1-(1)-1-(0)-(0)--|
|-2--x-2-(2)-2-(2)--0--|--0h==2--(2)-2-(2)-2--0---0---|
|-3--x-3-(3)-3-(3)--3--|--3--(3)-(3)-3-(3)-3--3---3---|
|-3--x-3-(3)-3-(3)--3--|--3--(3)-(3)-3-(3)-3--3---3---|
|----------------------|------------------------------|
|
| Q  E E +E  E  E   E     E   E   E  E +E  E  E   E
|-0----0-(0)-----------|--0---0------0-(0)------------|
|-1----1-(1)-----------|--1---1------1-(1)------------|
|-2--x-2-(2)-2--x---2--|--2---2---x--2-(2)-2--2---2---|
|-3--x-3-(3)-3--x---3--|--3---3---x--3-(3)-3--3---3---|
|-3--x-3-(3)-3--x---3--|--3---3---x--3-(3)-3--3---3---|
|----------------------|------------------------------|
|
| <
| W                      +W
|----------------------|------------------------------|
|-1--------------------|-(1)--------------------------|
|-2--------------------|-(2)--------------------------|
|-3--------------------|-(3)--------------------------|
|----------------------|------------------------------|
|----------------------|------------------------------|


  Am                  C
  E E E E +E  E E E   E E E E +E  E E E
|-0-----0-(0)-------|-0-----0-(0)-------|
|-1-1-x-1-(1)-1-x---|-1-1---1-(1)-1-----|
|-2-2-x-2-(2)-2-x-2-|-0-0-x-0-(0)-0-x-0-|
|-2-2-x-2-(2)-2-x-2-|-2-2-x-2-(2)-2-x-2-|
|-0-0---0-(0)-0---0-|-3-3-x-3-(3)-3-x-3-|
|-------------------|-------------------|
|
| Q   E E +E  E E E   Q   E E +E  E E E
|-0-----0-(0)-------|-0-----0-(0)-------|
|-1-----1-(1)-------|-1-----1-(1)-------|
|-2---x-2-(2)-2-x---|-0---x-0-(0)-0-x-0-|
|-2---x-2-(2)-2-x-2-|-2---x-2-(2)-2-x-2-|
|-0---x-0-(0)-0-x-0-|-3---x-3-(3)-3-x-3-|
|-------------------|-------------------|
|
| <                   <
| W                   W
|-5-----------------|-0-----------------|
|-5-----------------|-1-----------------|
|-5-----------------|-0-----------------|
|-------------------|-------------------|
|-------------------|-------------------|
|-------------------|-------------------|


  Fmaj7/C
  Q  E E +E  E +E   E     E   E  +E  E +E  E  E   E
|-0----0-(0)-----------|-------------0-(0)-----------|
|-1----1-(1)-1-(1)-(0)-|-(0)h(1)-(1)-1-(1)-1-(0)-(0)-|
|-2--x-2-(2)-2-(2)--0--|--0h==2--(2)-2-(2)-2--0---0--|
|-3--x-3-(3)-3-(3)--3--|--3--(3)-(3)-3-(3)-3--3---3--|
|-3--x-3-(3)-3-(3)--3--|--3--(3)-(3)-3-(3)-3--3---3--|
|----------------------|-----------------------------|
|
| Q  E E +E  E  E   E     E   E   E  E +E  E  E   E
|-0----0-(0)-----------|--0---0------0-(0)-----------|
|-1----1-(1)-----------|--1---1------1-(1)-----------|
|-2--x-2-(2)-2--x---2--|--2---2---x--2-(2)-2--2---2--|
|-3--x-3-(3)-3--x---3--|--3---3---x--3-(3)-3--3---3--|
|-3--x-3-(3)-3--x---3--|--3---3---x--3-(3)-3--3---3--|
|----------------------|-----------------------------|
|
| <
| W                      +W
|----------------------|-----------------------------|
|-1--------------------|-(1)-------------------------|
|-2--------------------|-(2)-------------------------|
|-3--------------------|-(3)-------------------------|
|----------------------|-----------------------------|
|----------------------|-----------------------------|


 Chorus
  Dm
  Gtr I
   E  E  E  E  E  E  E  E    E  E  E  E  E  E  E  E
|--5--5-----5--5--5-----5-|--5--5-----5--5--5--5--5-|
|--6--6--x--6--6--6--x--6-|--6--6--x--6--6--6--6--6-|
|--7--7--x--7--7--7--x--7-|--7--7--x--7--7--7--7--7-|
|--7--7--x--7--7--7--x--7-|--7--7--x--7--7--7--7--7-|
|--5--5--x--5--5--5--x--5-|--5--5--x--5--5--5--5--5-|
|-------------------------|-------------------------|
|
| Gtr II
|  Q     E  E  E  E  E  E    Q     E  E  E  E  E  E
|--1--------1--1--1-----1-|--1--------1--1--1--1--1-|
|--3-----x--3--3--3--x--3-|--3-----x--3--3--3--3--3-|
|--2-----x--2--2--2--x--2-|--2-----x--2--2--2--2--2-|
|--0-----x--0--0--0--x--0-|--0-----x--0--0--0--0--0-|
|-------------------------|-------------------------|
|-------------------------|-------------------------|
|
| Gtr III
|  E  E  E  E  E  E  E  E    E  E  E  E  E  E  E  E
|-------------------------|-------------------------|
|-10-10-10-10-10-10-10-10-|-12-12-12-12-13-13-13-13-|
|-------------------------|-------------------------|
|-------------------------|-------------------------|
|-------------------------|-------------------------|
|-------------------------|-------------------------|


    Am                       G
  E  E  E  E  E  E  E  E   E  E +E   E  +E   E  E  E
|----------------0--0--0-|----3-(3)--3--(3)-----3----|
|----1--1--1--1--1--1--1-|----0-(0)--0--(0)-----0----|
|----2--2--2--2--2--2--2-|----0-(0)--0--(0)--0--0--0-|
|----2--2--2--2--2--2--2-|----0-(0)--0--(0)--0--0--0-|
|----0--0--0--0--0--0--0-|----2-(2)--2--(2)--2--2--2-|
|------------------------|----3-(3)--3--(3)--3--3----|
|
| E  E  E  E  E  E  E  E   E  E +E   E  +E   E  E  E
|------------------------|----3-(3)--3--(3)-----3----|
|----1--1--1--1--1--1--1-|----3-(3)--3--(3)--3--3----|
|----2--2--2--2--2--2--2-|----0-(0)--0--(0)--0--0--0-|
|----2--2--2--2--2--2--2-|----0-(0)--0--(0)--0--0--0-|
|----0--0--0--0--0--0--0-|----2-(2)--2--(2)--2--2--2-|
|------------------------|----3-(3)--3--(3)--3--3--3-|
|
| E  E  E  E  E  E  E  E   E  E  E   E  +E   E  E  E
|------------------------|---15-----15-(15)----15----|
|---10-10-10-10-10-10-10-|---13-----12-(12)-12----12-|
|----9--9--9--9--9--9--9-|---------------------------|
|------------------------|---------------------------|
|------------------------|---------------------------|
|------------------------|---------------------------|


  Dm
   E  E  E  E  E  E  E  E    E  E  E  E  E  E  E  E
|--5--5-----5--5--5-----5-|--5--5-----5--5--5--5--5-|
|--6--6--x--6--6--6--x--6-|--6--6--x--6--6--6--6--6-|
|--7--7--x--7--7--7--x--7-|--7--7--x--7--7--7--7--7-|
|--7--7--x--7--7--7--x--7-|--7--7--x--7--7--7--7--7-|
|--5--5--x--5--5--5--x--5-|--5--5--x--5--5--5--5--5-|
|-------------------------|-------------------------|
|
|  Q     E  E  E  E  E  E    Q     E  E  E  E  E  E
|--1--------1--1--1-----1-|--1--------1--1--1--1--1-|
|--3-----x--3--3--3--x--3-|--3-----x--3--3--3--3--3-|
|--2-----x--2--2--2--x--2-|--2-----x--2--2--2--2--2-|
|--0-----x--0--0--0--x--0-|--0-----x--0--0--0--0--0-|
|-------------------------|-------------------------|
|-------------------------|-------------------------|
|
|  E  E  E  E  E  E  E  E    E  E  E  E  E  E  E  E
|-------------------------|-------------------------|
|-10-10-10-10-10-10-10-10-|-12-12-12-12-13-13-13-13-|
|-------------------------|-------------------------|
|-------------------------|-------------------------|
|-------------------------|-------------------------|
|-------------------------|-------------------------|


  Fmaj7/C
  E E  E  E   E  E  E E    E  E  E  E   E  E  E E
|-0-0---------0--0------|--0--0---------0----------||
|-1-1--x--1---1--1--x-1-|--1--1--x--1---1--1------o||
|-2-2--x--2---2--2--x-2-|--2--2--x--2---2--2--x----||
|-3-3--x--3---3--3--x-3-|--3--3--x--3---3--3--x----||
|-3-3--x--3---3--3--x-3-|--3--3--x--3---3--3--x-0-o||
|-----------------------|--------------------------||
|
| E E  E  E   E  E  E E    E  E  E  E   E  E  E E
|-0-0---------0--0------|--0--0---------0----------||
|-1-1--x--1---1--1--x-1-|--1--1--x--1---1--1------o||
|-2-2--x--2---2--2--x-2-|--2--2--x--2---2--2--x----||
|-3-3--x--3---3--3--x-3-|--3--3--x--3---3--3--x-3--||
|-3-3--x--3---3--3--x-3-|--3--3--x--3---3--3--x-3-o||
|-----------------------|--------------------------||
|
| E E  E  E  +E  E  E E   +E  E  E  E  +E  E  E E
|-----------------------|--------------------------||
|--------10-(10)--------|----------10-(10)--------o||
|---9h10---------9h10p9-|-(9)-9h10---------9h10----||
|-----------------------|--------------------------||
|-----------------------|-------------------------o||
|-----------------------|--------------------------||


 Interlude
  Am                    C
  Gtr IV
  Q.     E +E   E Q     Q.     E +E   E Q
|---------------------|---------------------|
|--------8-(8)--------|--------8-(8)--------|
|-5------------10-9---|-0------------10-9---|
|-7-------------------|-2-------------------|
|-7-------------------|-3-------------------|
|-5-------------------|-3-------------------|
| W                     W
|
| Gtr I
| E  E E E +E   E E E   E  E E E +E   E E E
|-0------0-(0)--------|-0------0-(0)--------|
|-1--1-x-1-(1)--1-x---|-1--1---1-(1)--1-----|
|-2--2-x-2-(2)--2-x-2-|-0--0-x-0-(0)--0-x-0-|
|-2--2-x-2-(2)--2-x-2-|-2--2-x-2-(2)--2-x-2-|
|-0--0---0-(0)--0---0-|-3--3-x-3-(3)--3-x-3-|
|---------------------|---------------------|
|
| Gtr II
| Q    E E +E   E E E   Q    E E +E   E E E
|-0------0-(0)--------|-0------0-(0)--------|
|-1------1-(1)--------|-1------1-(1)--------|
|-2----x-2-(2)--2-x---|-0----x-0-(0)--0-x-0-|
|-2----x-2-(2)--2-x-2-|-2----x-2-(2)--2-x-2-|
|-0----x-0-(0)--0-x-0-|-3----x-3-(3)--3-x-3-|
|---------------------|---------------------|


  Fmaj7/C
  Q.    E +H              +W
|-----------------------|-----------------------------|
|-----------------------|-----------------------------|
|-7-----5-(5)-----------|-(5)-------------------------|
|-3---------------------|-(3)-------------------------|
|-3---------------------|-(3)-------------------------|
|-1---------------------|-(1)-------------------------|
| W                       +W
|
| Q   E E +E  E +E   E     E   E  +E  E +E  E  E   E
|-0-----0-(0)-----------|-------------0-(0)-----------|
|-1-----1-(1)-1-(1)-(0)-|-(0)h(1)-(1)-1-(1)-1-(0)-(0)-|
|-2---x-2-(2)-2-(2)--0--|--0h==2--(2)-2-(2)-2--0---0--|
|-3---x-3-(3)-3-(3)--3--|--3--(3)-(3)-3-(3)-3--3---3--|
|-3---x-3-(3)-3-(3)--3--|--3--(3)-(3)-3-(3)-3--3---3--|
|-----------------------|-----------------------------|
|
| Q   E E +E  E  E   E     E   E   E  E +E  E  E   E
|-0-----0-(0)-----------|--0---0------0-(0)-----------|
|-1-----1-(1)-----------|--1---1------1-(1)-----------|
|-2---x-2-(2)-2--x---2--|--2---2---x--2-(2)-2--2---2--|
|-3---x-3-(3)-3--x---3--|--3---3---x--3-(3)-3--3---3--|
|-3---x-3-(3)-3--x---3--|--3---3---x--3-(3)-3--3---3--|
|-----------------------|-----------------------------|


  Am                    C
  Q.     E +E   E Q     Q.     E +E   E Q
|---------------------|---------------------|
|--------8-(8)--------|--------8-(8)--------|
|-5------------10-9---|-0------------10-9---|
|-7-------------------|-2-------------------|
|-7-------------------|-3-------------------|
|-5-------------------|-3-------------------|
| W                     W
|
| E  E E E +E   E E E   E  E E E +E   E E E
|-0------0-(0)--------|-0------0-(0)--------|
|-1--1-x-1-(1)--1-x---|-1--1---1-(1)--1-----|
|-2--2-x-2-(2)--2-x-2-|-0--0-x-0-(0)--0-x-0-|
|-2--2-x-2-(2)--2-x-2-|-2--2-x-2-(2)--2-x-2-|
|-0--0---0-(0)--0---0-|-3--3-x-3-(3)--3-x-3-|
|---------------------|---------------------|
|
| Q    E E +E   E E E   Q    E E +E   E E E
|-0------0-(0)--------|-0------0-(0)--------|
|-1------1-(1)--------|-1------1-(1)--------|
|-2----x-2-(2)--2-x---|-0----x-0-(0)--0-x-0-|
|-2----x-2-(2)--2-x-2-|-2----x-2-(2)--2-x-2-|
|-0----x-0-(0)--0-x-0-|-3----x-3-(3)--3-x-3-|
|---------------------|---------------------|


  Fmaj7/C
  Q.    E +H              +W
|-----------------------|-----------------------------|
|-----------------------|-----------------------------|
|-7-----5-(5)-----------|-(5)-------------------------|
|-3---------------------|-(3)-------------------------|
|-3---------------------|-(3)-------------------------|
|-1---------------------|-(1)-------------------------|
| W                       +W
|
| Q   E E +E  E +E   E     E   E  +E  E +E  E  E   E
|-0-----0-(0)-----------|-------------0-(0)-----------|
|-1-----1-(1)-1-(1)-(0)-|-(0)h(1)-(1)-1-(1)-1-(0)-(0)-|
|-2---x-2-(2)-2-(2)--0--|--0h==2--(2)-2-(2)-2--0---0--|
|-3---x-3-(3)-3-(3)--3--|--3--(3)-(3)-3-(3)-3--3---3--|
|-3---x-3-(3)-3-(3)--3--|--3--(3)-(3)-3-(3)-3--3---3--|
|-----------------------|-----------------------------|
|
| Q   E E +E  E  E   E     E   E   E  E +E  E  E   E
|-0-----0-(0)-----------|--0---0------0-(0)-----------|
|-1-----1-(1)-----------|--1---1------1-(1)-----------|
|-2---x-2-(2)-2--x---2--|--2---2---x--2-(2)-2--2---2--|
|-3---x-3-(3)-3--x---3--|--3---3---x--3-(3)-3--3---3--|
|-3---x-3-(3)-3--x---3--|--3---3---x--3-(3)-3--3---3--|
|-----------------------|-----------------------------|


 Chorus
  Dm
  Gtr I
   E  E  E  E  E  E  E  E    E  E  E  E  E  E  E  E
|--5--5-----5--5--5-----5-|--5--5-----5--5--5--5--5-|
|--6--6--x--6--6--6--x--6-|--6--6--x--6--6--6--6--6-|
|--7--7--x--7--7--7--x--7-|--7--7--x--7--7--7--7--7-|
|--7--7--x--7--7--7--x--7-|--7--7--x--7--7--7--7--7-|
|--5--5--x--5--5--5--x--5-|--5--5--x--5--5--5--5--5-|
|-------------------------|-------------------------|
|
| Gtr II
|  Q     E  E  E  E  E  E    Q     E  E  E  E  E  E
|--1--------1--1--1-----1-|--1--------1--1--1--1--1-|
|--3-----x--3--3--3--x--3-|--3-----x--3--3--3--3--3-|
|--2-----x--2--2--2--x--2-|--2-----x--2--2--2--2--2-|
|--0-----x--0--0--0--x--0-|--0-----x--0--0--0--0--0-|
|-------------------------|-------------------------|
|-------------------------|-------------------------|
|
| Gtr III
|  E  E  E  E  E  E  E  E    E  E  E  E  E  E  E  E
|-------------------------|-------------------------|
|-10-10-10-10-10-10-10-10-|-12-12-12-12-13-13-13-13-|
|-------------------------|-------------------------|
|-------------------------|-------------------------|
|-------------------------|-------------------------|
|-------------------------|-------------------------|


    Am                       G
  E  E  E  E  E  E  E  E   E  E +E   E  +E   E  E  E
|----------------0--0--0-|----3-(3)--3--(3)-----3----|
|----1--1--1--1--1--1--1-|----0-(0)--0--(0)-----0----|
|----2--2--2--2--2--2--2-|----0-(0)--0--(0)--0--0--0-|
|----2--2--2--2--2--2--2-|----0-(0)--0--(0)--0--0--0-|
|----0--0--0--0--0--0--0-|----2-(2)--2--(2)--2--2--2-|
|------------------------|----3-(3)--3--(3)--3--3----|
|
| E  E  E  E  E  E  E  E   E  E +E   E  +E   E  E  E
|------------------------|----3-(3)--3--(3)-----3----|
|----1--1--1--1--1--1--1-|----3-(3)--3--(3)--3--3----|
|----2--2--2--2--2--2--2-|----0-(0)--0--(0)--0--0--0-|
|----2--2--2--2--2--2--2-|----0-(0)--0--(0)--0--0--0-|
|----0--0--0--0--0--0--0-|----2-(2)--2--(2)--2--2--2-|
|------------------------|----3-(3)--3--(3)--3--3--3-|
|
| E  E  E  E  E  E  E  E   E  E  E   E  +E   E  E  E
|------------------------|---15-----15-(15)----15----|
|---10-10-10-10-10-10-10-|---13-----12-(12)-12----12-|
|----9--9--9--9--9--9--9-|---------------------------|
|------------------------|---------------------------|
|------------------------|---------------------------|
|------------------------|---------------------------|


  Dm
   E  E  E  E  E  E  E  E    E  E  E  E  E  E  E  E
|--5--5-----5--5--5-----5-|--5--5-----5--5--5--5--5-|
|--6--6--x--6--6--6--x--6-|--6--6--x--6--6--6--6--6-|
|--7--7--x--7--7--7--x--7-|--7--7--x--7--7--7--7--7-|
|--7--7--x--7--7--7--x--7-|--7--7--x--7--7--7--7--7-|
|--5--5--x--5--5--5--x--5-|--5--5--x--5--5--5--5--5-|
|-------------------------|-------------------------|
|
|  Q     E  E  E  E  E  E    Q     E  E  E  E  E  E
|--1--------1--1--1-----1-|--1--------1--1--1--1--1-|
|--3-----x--3--3--3--x--3-|--3-----x--3--3--3--3--3-|
|--2-----x--2--2--2--x--2-|--2-----x--2--2--2--2--2-|
|--0-----x--0--0--0--x--0-|--0-----x--0--0--0--0--0-|
|-------------------------|-------------------------|
|-------------------------|-------------------------|
|
|  E  E  E  E  E  E  E  E    E  E  E  E  E  E  E  E
|-------------------------|-------------------------|
|-10-10-10-10-10-10-10-10-|-12-12-12-12-13-13-13-13-|
|-------------------------|-------------------------|
|-------------------------|-------------------------|
|-------------------------|-------------------------|
|-------------------------|-------------------------|


  Fmaj7/C
  E E  E  E   E  E  E E    E  E  E  E   E  E  E   E
|-0-0---------0--0------|--0--0---------0-------------|
|-1-1--x--1---1--1--x-1-|--1--1--x--1---1--1----------|
|-2-2--x--2---2--2--x-2-|--2--2--x--2---2--2--x-------|
|-3-3--x--3---3--3--x-3-|--3--3--x--3---3--3--x-------|
|-3-3--x--3---3--3--x-3-|--3--3--x--3---3--3--x---0---|
|-----------------------|-----------------------------|
|
| E E  E  E   E  E  E E    E  E  E  E   E  E  E   E
|-0-0---------0--0------|--0--0---------0-------------|
|-1-1--x--1---1--1--x-1-|--1--1--x--1---1--1----------|
|-2-2--x--2---2--2--x-2-|--2--2--x--2---2--2--x-------|
|-3-3--x--3---3--3--x-3-|--3--3--x--3---3--3--x---3---|
|-3-3--x--3---3--3--x-3-|--3--3--x--3---3--3--x---3---|
|-----------------------|-----------------------------|
|
| E E  E  E  +E  E  E E   +E  E  E  E  +E  E  E  +E
|-----------------------|-----------------------------|
|--------10-(10)--------|----------10-(10)------------|
|---9h10---------9h10p9-|-(9)-9h10---------9-10-(10)s=|
|-----------------------|-----------------------------|
|-----------------------|-----------------------------|
|-----------------------|-----------------------------|


 Guitar Solo
  Am                        C
  Gtr III
   Q    E  E  E   E  E  E    E  E  E  E  E   E  E   E
|-------------------------|-----------------------------|
|------17----17-----17----|-17----17----17-----17-(17)\-|
|-17------17-----17----17-|----17----17-----17-----17\--|
|-------------------------|-----------------------------|
|-------------------------|-----------------------------|
|-------------------------|-----------------------------|
|
| Gtr I
|  E E  E  E +E   E  E  E    E  E  E  E +E   E  E   E
|--0-------0-(0)----------|--0--------0-(0)-------------|
|--1-1--x--1-(1)--1--x----|--1--1-----1-(1)--1----------|
|--2-2--x--2-(2)--2--x--2-|--0--0--x--0-(0)--0--x---0---|
|--2-2--x--2-(2)--2--x--2-|--2--2--x--2-(2)--2--x---2---|
|--0-0-----0-(0)--0-----0-|--3--3--x--3-(3)--3--x---3---|
|-------------------------|-----------------------------|
|
| Gtr II
|  Q    E  E +E   E  E  E    Q     E  E +E   E  E   E
|--0-------0-(0)----------|--0--------0-(0)-------------|
|--1-------1-(1)----------|--1--------1-(1)-------------|
|--2----x--2-(2)--2--x----|--0-----x--0-(0)--0--x---0---|
|--2----x--2-(2)--2--x--2-|--2-----x--2-(2)--2--x---2---|
|--0----x--0-(0)--0--x--0-|--3-----x--3-(3)--3--x---3---|
|-------------------------|-----------------------------|


  Fmaj7/C
  E E  E  E  +E  E  E   E    +E   E   E   E  +E  E  E   +E
|--------------------------|---------------------------------|
|--------10-(10)-----------|-------------10-(10)-------------|
|---9h10---------9h10p==9--|-(9)--9h=10----------9-10--(10)s=|
|--------------------------|---------------------------------|
|--------------------------|---------------------------------|
|--------------------------|---------------------------------|
|
| Q    E  E  +E  E +E   E     E   E  +E   E  +E  E  E    E
|-0-------0--(0)-----------|--------------0--(0)-------------|
|-1-------1--(1)-1-(1)-(0)-|-(0)h(1)-(1)--1--(1)-1-(0)--(0)--|
|-2----x--2--(2)-2-(2)--0--|--0h==2--(2)--2--(2)-2--0----0---|
|-3----x--3--(3)-3-(3)--3--|--3--(3)-(3)--3--(3)-3--3----3---|
|-3----x--3--(3)-3-(3)--3--|--3--(3)-(3)--3--(3)-3--3----3---|
|--------------------------|---------------------------------|
|
| Q    E  E  +E  E  E   E     E   E   E   E  +E  E  E    E
|-0-------0--(0)-----------|--0---0-------0--(0)-------------|
|-1-------1--(1)-----------|--1---1-------1--(1)-------------|
|-2----x--2--(2)-2--x---2--|--2---2---x---2--(2)-2--2----2---|
|-3----x--3--(3)-3--x---3--|--3---3---x---3--(3)-3--3----3---|
|-3----x--3--(3)-3--x---3--|--3---3---x---3--(3)-3--3----3---|
|--------------------------|---------------------------------|


  Am                        C
   Q    E  E  E   E  E  E    E  E  E  E  E   E  E   E
|-------------------------|-----------------------------|
|------17----17-----17----|-17----17----17-----17-(17)\-|
|-17------17-----17----17-|----17----17-----17-----17\--|
|-------------------------|-----------------------------|
|-------------------------|-----------------------------|
|-------------------------|-----------------------------|
|
|  E E  E  E +E   E  E  E    E  E  E  E +E   E  E   E
|--0-------0-(0)----------|--0--------0-(0)-------------|
|--1-1--x--1-(1)--1--x----|--1--1-----1-(1)--1----------|
|--2-2--x--2-(2)--2--x--2-|--0--0--x--0-(0)--0--x---0---|
|--2-2--x--2-(2)--2--x--2-|--2--2--x--2-(2)--2--x---2---|
|--0-0-----0-(0)--0-----0-|--3--3--x--3-(3)--3--x---3---|
|-------------------------|-----------------------------|
|
|  Q    E  E +E   E  E  E    Q     E  E +E   E  E   E
|--0-------0-(0)----------|--0--------0-(0)-------------|
|--1-------1-(1)----------|--1--------1-(1)-------------|
|--2----x--2-(2)--2--x----|--0-----x--0-(0)--0--x---0---|
|--2----x--2-(2)--2--x--2-|--2-----x--2-(2)--2--x---2---|
|--0----x--0-(0)--0--x--0-|--3-----x--3-(3)--3--x---3---|
|-------------------------|-----------------------------|


  Fmaj7/C
  E E  E  E  +E  E  E   E    +E   E   E   E  +E  E  E   E
|--------------------------|-------------------------------|
|--------10-(10)-----------|-------------10-(10)-----------|
|---9h10---------9h10p==9--|-(9)--9h=10----------9h10------|
|--------------------------|-------------------------------|
|--------------------------|-------------------------------|
|--------------------------|-------------------------------|
|
| Q    E  E  +E  E +E   E     E   E  +E   E  +E  E  E   E
|-0-------0--(0)-----------|--------------0--(0)-----------|
|-1-------1--(1)-1-(1)-(0)-|-(0)h(1)-(1)--1--(1)-1-(0)-(0)-|
|-2----x--2--(2)-2-(2)--0--|--0h==2--(2)--2--(2)-2--0---0--|
|-3----x--3--(3)-3-(3)--3--|--3--(3)-(3)--3--(3)-3--3---3--|
|-3----x--3--(3)-3-(3)--3--|--3--(3)-(3)--3--(3)-3--3---3--|
|--------------------------|-------------------------------|
|
| Q    E  E  +E  E  E   E     E   E   E   E  +E  E  E   E
|-0-------0--(0)-----------|--0---0-------0--(0)-----------|
|-1-------1--(1)-----------|--1---1-------1--(1)-----------|
|-2----x--2--(2)-2--x---2--|--2---2---x---2--(2)-2--2---2--|
|-3----x--3--(3)-3--x---3--|--3---3---x---3--(3)-3--3---3--|
|-3----x--3--(3)-3--x---3--|--3---3---x---3--(3)-3--3---3--|
|--------------------------|-------------------------------|


 Outro Verse
  Am                  C
  Gtr I
  E E E E +E  E E E   E E E E +E  E E E
|-0-----0-(0)-------|-0-----0-(0)-------|
|-1-1-x-1-(1)-1-x---|-1-1---1-(1)-1-----|
|-2-2-x-2-(2)-2-x-2-|-0-0-x-0-(0)-0-x-0-|
|-2-2-x-2-(2)-2-x-2-|-2-2-x-2-(2)-2-x-2-|
|-0-0---0-(0)-0---0-|-3-3-x-3-(3)-3-x-3-|
|-------------------|-------------------|
|
| Gtr II
| Q   E E +E  E E E   Q   E E +E  E E E
|-0-----0-(0)-------|-0-----0-(0)-------|
|-1-----1-(1)-------|-1-----1-(1)-------|
|-2---x-2-(2)-2-x---|-0---x-0-(0)-0-x-0-|
|-2---x-2-(2)-2-x-2-|-2---x-2-(2)-2-x-2-|
|-0---x-0-(0)-0-x-0-|-3---x-3-(3)-3-x-3-|
|-------------------|-------------------|
|
| Gtr IV
| <                   <
| W                   W
|-5-----------------|-0-----------------|
|-5-----------------|-1-----------------|
|-5-----------------|-0-----------------|
|-------------------|-------------------|
|-------------------|-------------------|
|-------------------|-------------------|


  Fmaj7/C
  Q  E E +E  E +E   E     E   E  +E  E +E  E  E   E
|-0----0-(0)-----------|-------------0-(0)-----------|
|-1----1-(1)-1-(1)-(0)-|-(0)h(1)-(1)-1-(1)-1-(0)-(0)-|
|-2--x-2-(2)-2-(2)--0--|--0h==2--(2)-2-(2)-2--0---0--|
|-3--x-3-(3)-3-(3)--3--|--3--(3)-(3)-3-(3)-3--3---3--|
|-3--x-3-(3)-3-(3)--3--|--3--(3)-(3)-3-(3)-3--3---3--|
|----------------------|-----------------------------|
|
| Q  E E +E  E  E   E     E   E   E  E +E  E  E   E
|-0----0-(0)-----------|--0---0------0-(0)-----------|
|-1----1-(1)-----------|--1---1------1-(1)-----------|
|-2--x-2-(2)-2--x---2--|--2---2---x--2-(2)-2--2---2--|
|-3--x-3-(3)-3--x---3--|--3---3---x--3-(3)-3--3---3--|
|-3--x-3-(3)-3--x---3--|--3---3---x--3-(3)-3--3---3--|
|----------------------|-----------------------------|
|
| <
| W                      +W
|----------------------|-----------------------------|
|-1--------------------|-(1)-------------------------|
|-2--------------------|-(2)-------------------------|
|-3--------------------|-(3)-------------------------|
|----------------------|-----------------------------|
|----------------------|-----------------------------|


  Am                  C                   Fmaj7/C
  E E E E +E  E E E   E E E E +E  E E E   Q  E E +H       +W
|-0-----0-(0)-------|-0-----0-(0)-------|-0----0-(0)----|-(0)----*|
|-1-1-x-1-(1)-1-x---|-1-1---1-(1)-1-----|-1----1-(1)----|-(1)----*|
|-2-2-x-2-(2)-2-x-2-|-0-0-x-0-(0)-0-x-0-|-2--x-2-(2)----|-(2)----*|
|-2-2-x-2-(2)-2-x-2-|-2-2-x-2-(2)-2-x-2-|-3--x-3-(3)----|-(3)----*|
|-0-0---0-(0)-0---0-|-3-3-x-3-(3)-3-x-3-|-3--x-3-(3)----|-(3)----*|
|-------------------|-------------------|---------------|--------*|
|
| Q   E E +E  E E E   Q   E E +E  E E E   Q  E E +H       +W
|-0-----0-(0)-------|-0-----0-(0)-------|-0----0-(0)----|-(0)----*|
|-1-----1-(1)-------|-1-----1-(1)-------|-1----1-(1)----|-(1)----*|
|-2---x-2-(2)-2-x---|-0---x-0-(0)-0-x-0-|-2--x-2-(2)----|-(2)----*|
|-2---x-2-(2)-2-x-2-|-2---x-2-(2)-2-x-2-|-3--x-3-(3)----|-(3)----*|
|-0---x-0-(0)-0-x-0-|-3---x-3-(3)-3-x-3-|-3--x-3-(3)----|-(3)----*|
|-------------------|-------------------|---------------|--------*|
|
| <                   <                   <
| W                   W                   W               +W
|-5-----------------|-0-----------------|---------------|--------*|
|-5-----------------|-1-----------------|-1-------------|-(1)----*|
|-5-----------------|-0-----------------|-2-------------|-(2)----*|
|-------------------|-------------------|-3-------------|-(3)----*|
|-------------------|-------------------|---------------|--------*|
|-------------------|-------------------|---------------|--------*|


Duration Legend
---------------
W - whole; H - half; Q - quarter; E - 8th; S - 16th; T - 32nd; X - 64th; a - acciaccatura
+ - note tied to previous; . - note dotted; .. - note double dotted
Uncapitalized letters represent notes that are staccato (1/2 duration)
Irregular groupings are notated above the duration line
Duration letters will always appear directly above the note/fret number it represents the
duration for.  Duration letters with no fret number below them represent rests.  Multi-
bar rests are notated in the form Wxn, where n is the number of bars to rest for.  Low
melody durations appear below the staff

Tablature Legend
----------------
 h   - hammer-on
 p   - pull-off
 b   - bend
 pb  - pre-bend
 r   - bend release (if no number after the r, then release immediately)
 /\  - slide into or out of (from/to "nowhere")
 s   - legato slide
 S   - shift slide
  - natural harmonic
[n]  - artificial harmonic
n(n) - tapped harmonic
 ~   - vibrato
 tr  - trill
 T   - tap
 TP  - trem. picking
 PM  - palm muting
\n/  - tremolo bar dip; n = amount to dip
 \n  - tremolo bar down
 n/  - tremolo bar up
/n\  - tremolo bar inverted dip
 =   - hold bend; also acts as connecting device for hammers/pulls
 <>  - volume swell (louder/softer)
 x   - on rhythm slash represents muted slash
 o   - on rhythm slash represents single note slash

Misc Legend
-----------
 |  - bar
||  - double bar
||o - repeat start
o|| - repeat end
*|  - double bar (ending)
 :  - bar (freetime)
 $  - Segno
 &  - Coda
Tempo markers -  = BPM(8/16=s8/s16), where s8 = swing 8ths, s16 = swing 16ths

            
            
Suggest correction
Creating personal tab
Creating personal tab
You can edit any tab online and save it as your Personal.

You can edit, replace or remove any tab part or add personal notes – all changes will be seen only by you.

Personal tabs can be accessed anytime from any device, even offline.
Learn more »
Give kudos to tab author, rate the tab!
1 2 3 4 5
comments
print report bad tab
guest
You may want to rate the tab now too:
select rating
Wanna post a correction for this tab? Suggest correction