Oops, an error
Loading. Please wait.

Every Teardrop Is A Waterfall Chords

version 1
version 1
443,197 views 219 this week
1 commentread comment
1 2 3 4 5
accurate
x 24
add to favorites
launch autoscroll
font size
0
reset
transpose
0
reset
simplify chords
display chords
guitar tuner
Tab Pro tools
  • play this tab
  • loop segment
  • change instrument
  • show fretboard
  • metronome
×
Best way to learn
"Every Teardrop Is A Waterfall"
Autoscroll
slow
fast
+/-
esc
set tempo
stop
Difficulty
intermediate
So when I wrote this tab, there were no other versions out there. 
Remember, this is my interpretation, so some of chords might not be right. 
On the other hand, sound about right and is really quite easy to play.
A couple of slash chords here and there which are hard to get your head round. 
Otherwise, hope you have a great time playing it. JOBY

P.S. I don't have the hash key (as in sharps) on my keyboard, so 
* = sharp in this chords tab


Chords used in this song:  

       D/F*               Asus2                  Asus2/C*
|------2------|       |------0------|         |------0------| 
|------3------|       |------0------|         |------0------| 
|------2------|       |------2------|         |------2------| 
|------4------|       |------2------|         |------2------| 
|------x------|       |------0------|         |------4------| 
|------x------|       |------x------|         |------0------| 

       F*m                   D                        A
|------2------|       |------2------|         |------0------| 
|------2------|       |------3------|         |------2------| 
|------2------|       |------2------|         |------2------| 
|------4------|       |------0------|         |------2------| 
|------4------|       |------x------|         |------0------| 
|------2------|       |------x------|         |------0------| 

        D5                 Asus4                   Bm
|------5------|       |------0------|         |------2------| 
|------7------|       |------3------|         |------3------| 
|------7------|       |------2------|         |------4------| 
|------0------|       |------2------|         |------4------| 
|------x------|       |------x------|         |------2------| 
|------x------|       |------x------|         |------x------| 

       C*m                  E                                    
|------5------|       |------0------|   
|------7------|       |------0------|     
|------7------|       |------1------|  
|------0------|       |------2------| 
|------x------|       |------2------|  
|------x------|       |------0------|  


Intro: D/F*   Asus2     D/F*   Asus2 

           D/F*
I TURN THE MUSIC UP, I GOT MY RECORDS ON
           Asus2                    Asus2/C*
I SHUT THE WORLD OUTSIDE UNTIL THE LIGHTS COME ON
           D/F*
MAYBE THE STREETS ALIGHT, MAYBE THE TREES ARE GONE
           Asus2                    Asus2/C*
I FEEL MY HEART START BEATING TO MY FAVOURITE SONG
            D/F*
AND ALL THE KIDS THEY DANCE, ALL THE KIDS ALL NIGHT
           Asus2         Asus2/C*
UNTIL MONDAY MORNING FEELS ANOTHER LIFE
            F*m
I TURN THE MUSIC UP, IM ON A ROLL THIS TIME
         D
AND HEAVEN IS IN SIGHT

Solo:   A       D        A       D
        A       D        A       D
 
             D/F*
I TURN THE MUSIC UP, I GOT MY RECORDS ON
            Asus2                  Asus2/C*
FROM UNDERNEATH THE RUBBLE SING A REBEL SONG
              D/F*
DONT WANT TO SEE ANOTHER GENERATION DROP
        Asus2             Asus2/C*
ID RATHER BE A COMMA THAN A FULL STOP
              D/F*
MAYBE IM IN THE BLACK, MAYBE IM ON MY KNEES
          Asus2                 Asus2/C*
MAYBE IM IN THE GAP BETWEEN THE TWO TRAPEZES
         F*m
BUT MY HEART IS BEATING AND MY PULSES START
      D
CATHEDRALS IN MY HEART

       D5           Asus2  A               F*m
AND WE SAW OH THIS LIGHT I SWEAR YOU, EMERGE BLINKING INTO
   D
TO TELL ME ITS ALRIGHT
       D5           Asus2     A             F*m 
AS WE SOAR WALLS, EVERY SIREN IS A SYMPHONY
                               D
AND EVERY TEARS A WATERFALL


         A
IS A WATERFALL
Asus4
OH
    A
IS A WATERFALL
Asus4
OH OH OH
           A
IS A IS A WATERFALL
            Asus4
EVERY TEAR
    A
IS A WATERFALL
 Asus4
OH OH OH

          Bm           F*m
SO YOU CAN HURT, HURT ME BAD
         C*m  D5      A
BUT STILL ILL RAISE        THE FLAG
D/F*  A    D/F* 
OH
     A               D
IT WAS A WA WA WA WA WA-ATERFALL
    A            D
A WA WA WA WA WA-ATERFALL

Instrumental:     D      D/F*    A     E
                  D      D/F*    A     E
                                  D      D/F*    A     E (oooooh)
                  D      D/F*    A     E (oooooh)
D
EVERY TEAR
D/F*
EVERY TEAR
A                   E
EVERY TEARDROP IS A WATERFALL
D
EVERY TEAR
D/F*
EVERY TEAR
A                   E
EVERY TEARDROP IS A WATERFALL

Outro:   A
comments
print report bad tab
1 comment total.
0 reply
lion42 wrote on September 14 2015, 03:14 pm

I like it! :)

I want to post or [tab]
guest
You may want to rate the tab now too:
select rating
Please do not post tabs as comments. Select "correction" instead!