Oops, an error
Loading. Please wait.

Fix You Tab

version 1
version 1

Whole song

395,986 views 651 this week
7 commentsread comments
1 2 3 4 5
accurate
x 25
add to favorites
launch autoscroll
font size
0
reset
how to read this tab
guitar tuner
Autoscroll
slow
fast
+/-
esc
set tempo
stop
Help us to improve Ultimate-Guitar.com Take our survey!
×
Song Title: Fix You
Artist: Coldplay
Album: X & Y
Tabbed by GuitarSuperstar

(Tab based on performance on SNL.)

Standard Tuning
Electric Guitar w/delay


[Verse 1] 

(guitar silent)


[Chorus]

 Lights will guide you home...
e|-----------------------------------------|
B|--4---4----4---4---------6---6----6---6--|
G|--3h5------3h5----3------5h7------5h7----|  Play 2x
D|-----------------------------------------|
A|-----------------------------------------|
E|-----------------------------------------|

e|--------------------------------|
B|--4---4----4---4---------6---6--|
G|--3h5------3h5----3------5h7----|
D|--------------------------------|
A|--------------------------------|
E|--------------------------------|

e|-----11-----10-----11-----10--|
B|------------------------------|
G|--12-----12-----12-----12-----|
D|------------------------------|
A|------------------------------|
E|------------------------------|


[Verse 2]

 High up above and down below...
e|----11-----10-----11-----10---|
B|--11-----11-----11-----11-----|
G|------------------------------|  Play 4x
D|------------------------------|
A|------------------------------|
E|------------------------------|


[Chorus]

 Lights will guide you home...
e|-----------------------------------------|
B|--4---4----4---4---------6---6----6---6--|
G|--3h5------3h5----3------5h7------5h7----|  Play 2x
D|-----------------------------------------|
A|-----------------------------------------|
E|-----------------------------------------|

e|--------------------------------|
B|--4---4----4---4---------6---6--|
G|--3h5------3h5----3------5h7----|
D|--------------------------------|
A|--------------------------------|
E|--------------------------------|

e|-----11-----10-----11-----10--|
B|------------------------------|
G|--12-----12-----12-----12-----|
D|------------------------------|
A|------------------------------|
E|------------------------------|


[Outro]

e|----------------------------------------------------------------------------|
B|--4-4-4-4-4-4-4-4-4-4-4-4/11-11-11-11\4-4-4-4-4-4-4-4-4-4-4-4/11-11-11-11\--|
G|----------------------------------------------------------------------------|
D|----------------------------------------------------------------------------|
A|----------------------------------------------------------------------------|
E|----------------------------------------------------------------------------|

e|---------------------------------------------------------------------------|
B|--4-4-4-4-4-4-4-4-4-4-4-4/11-11-11-11/4-4-4\3-3-3-3-3-3-3-3-3-3-3-3-3-3-3--|
G|---------------------------------------------------------------------------|
D|---------------------------------------------------------------------------|
A|---------------------------------------------------------------------------|
E|---------------------------------------------------------------------------|

Repeat until end of song.


************************************

| h  Hammer-on
| /  Slide up
| \  Slide down

************************************
Suggest correction
What's this?
You can suggest a correction to this tab. Community and Mods will review your correction and vote to approve or reject it.
comments
print report bad tab
7 comments total. Showing first comments.
0 reply
Nxt_JoeWalsh 28 wrote on August 17 2005, 12:00 am

Nice tab, like the end guitar, 5 stars *****

0 reply
af2w131f 127 wrote on November 4 2005, 05:44 pm

Very nice, love this tab...the best tab for the ONLY guitar in the song.

0 reply
af2w131f 127 wrote on November 4 2005, 05:59 pm

The only electric guitar I meant :)

guest
You may want to rate the tab now too:
select rating
Please do not post tabs as comments. Select "correction" instead!