Oops, an error
Loading. Please wait.
We have an official Fix You tab made by UG professional guitarists. Check out the tab »
×

Fix You tab

version 10
version 10

Whole song

Video

736 views 12 this week
no commentswrite comment
1 2 3 4 5
x 3
add to favorites
×
Save as Personal and add changes to this tab that will be seen only by you. Learn more ›
×
You can save this tab as Personal to edit and correct it or add notes. All changes will be seen only by you. Learn more »
launch autoscroll
font size
0
reset
how to read this tab
guitar tuner
backing track
0:00
0:00
edit
Autoscroll
slow
fast
+/-
esc
set tempo
stop
About this tab version
My version is clearer and doesn't looks like the other songs on the site. Was this info helpful? Yes No
capo 3

intro 2x

e|-0-------------0-------------0-------------3-------------|
B|----------1-------------0-------------1--------------1---|
G|------0-----0-------0-----0-------0-----0-------0------0-|
D|----2-------------2-------------2-------------0----------|
A|-3------3--------------------0------0-------------2------|
E|---------------0------0--------------------3-------------|

Verse 1


e|-0--0-----------------------------------3-------------0--0-0----------------------------------3------------|
B|--------1------0--0--0---0-1--------1------------1-----------1----0--0-0-0----0-1--------1-------------1---|
G|-----------0-0---------0--------2-----2------0-----0------------0-----------0--------2-----2-------0-----0-|
D|------------------------------2------------0---------------------------------------2-------------0---------|
A|-3------3------------------0------0------------2------3------3------------------0------0-------------2-----|
E|---------------0-----0------------------3-------------------------0------0--------------------3------------|

e|-0--0--0--0-1-0--0--0----0-0----------3---------------0-----------0-------------0-------------3------------|
B|-----------------------0------------1--------1--1--1-----------1-----------0-------------1-------------1-1-|
G|--------------------------------2----------0---------------0-----------0-----0-------0-----0---------------|
D|------------------------------2----------0---------------2-----------2-------------2-----------------------|
A|-3-----3-------------------0------0-------------------3------3------------------0------0-------------------|
E|--------------0-----0-----------------3---------------------------0------0--------------------3------------|

Verse 2


e|-0--0-----------------------------------3-------------0--0-0----------------------------------3------------|
B|--------1------0--0--0---0-1--------1------------1-----------1----0--0-0-0----0-1--------1-------------1---|
G|-----------0-0---------0--------2-----2------0-----0------------0-----------0--------2-----2-------0-----0-|
D|------------------------------2------------0---------------------------------------2-------------0---------|
A|-3------3------------------0------0------------2------3------3------------------0------0-------------2-----|
E|---------------0-----0------------------3-------------------------0------0--------------------3------------|

e|-0--0--0--0-1-0--0--0----0-0----------3---------------0-----------0-------------0-------------3------------|
B|-----------------------0------------1--------1--1--1-----------1-----------0-------------1-----------------|
G|--------------------------------2----------0---------------0-----------0-----0-------0-----0---------------|
D|------------------------------2----------0---------------2-----------2-------------2-----------------------|
A|-3-----3-------------------0------0-------------------3------3------------------0------0-------------------|
E|--------------0-----0-----------------3---------------------------0------0--------------------3------------|

Chorus


e|-1-------------1--0--3------3-------3----3--3p1--1-------------1--0--3------3------3----3--3p1-|
B|----------1---------------3-------3-----------------------1---------------3------3-------------|
G|------2-----2-----------0-----------------------------2-----2-----------0----------------------|
D|----3-----------------------------------------------3------------------------------------------|
A|-----------------------------------------------------------------------------------------------|
E|-1------1------1-----3---------3---------3-------1------1------1-----3---------3--------3------|

e|-1-------------1--0--3------3-----3----0----|
B|----------1---------------3-----3----1---1--|
G|------2-----2-----------0-------------------|
D|----3---------------------------------------|
A|--------------------------------------------|
E|-1------1------1-----3--------3-------------|

Instrumental 2x


e|-0-------------0-------------0-------------3-------------|
B|----------1-------------0-------------1--------------1---|
G|------0-----0-------0-----0-------0-----0-------0------0-|
D|----2-------------2-------------2-------------0----------|
A|-3------3--------------------0------0-------------2------|
E|---------------0------0--------------------3-------------|

Verse 3


e|-0--0-----------------------------------3-------------0--0-0----------------------------------3------------|
B|--------1------0--0--0---0-1--------1------------1-----------1----0--0-0-0----0-1--------1-------------1---|
G|-----------0-0---------0--------2-----2------0-----0------------0-----------0--------2-----2-------0-----0-|
D|------------------------------2------------0---------------------------------------2-------------0---------|
A|-3------3------------------0------0------------2------3------3------------------0------0-------------2-----|
E|---------------0-----0------------------3-------------------------0------0--------------------3------------|

e|-0--0--0--0-1-0--0--0----0-0----------3---------------0-----------0-------------0-------------3------------|
B|-----------------------0------------1--------1--1--1-----------1-----------0-------------1-----------------|
G|--------------------------------2----------0---------------0-----------0-----0-------0-----0---------------|
D|------------------------------2----------0---------------2-----------2-------------2-----------------------|
A|-3-----3-------------------0------0-------------------3------3------------------0------0-------------------|
E|--------------0-----0-----------------3---------------------------0------0--------------------3------------|

Chorus


e|-1-------------1--0--3------3-------3----3--3p1--1-------------1--0--3------3------3----3--3p1-|
B|----------1---------------3-------3-----------------------1---------------3------3-------------|
G|------2-----2-----------0-----------------------------2-----2-----------0----------------------|
D|----3-----------------------------------------------3------------------------------------------|
A|-----------------------------------------------------------------------------------------------|
E|-1------1------1-----3---------3---------3-------1------1------1-----3---------3--------3------|

e|-1-------------1--0--3------3-----3----0----|
B|----------1---------------3-----3----1---1--|
G|------2-----2-----------0-------------------|
D|----3---------------------------------------|
A|--------------------------------------------|
E|-1------1------1-----3--------3-------------|

In The following part of the song you play chords in sixteenth notes





Instrumental 



e|-------------------------3-3-3-3-------------------------3-3-3-3-|
B|-1-1-1-1-1-1-1-1-1-1-1-1-1-1-1-1-1-1-1-1-1-1-1-1-1-1-1-1-1-1-1-1-|
G|-0-0-0-0-0-0-0-0-0-0-0-0-0-0-0-0-0-0-0-0-0-0-0-0-0-0-0-0-0-0-0-0-|
D|-2-2-2-2-2-2-2-2-2-2-2-2-2-2-2-2-3-3-3-3-3-3-3-3-3-3-3-3-3-3-3-3-|
A|-3-3-3-3-3-3-3-3-3-3-3-3-3-3-3-3-3-3-3-3-3-3-3-3-3-3-3-3-3-3-3-3-|
E|---------------------------------1-1-1-1-1-1-1-1-1-1-1-1-1-1-1-1-|

e|-------------------------3-3-3-3---------------------------------|
B|-1-1-1-1-1-1-1-1-1-1-1-1-1-1-1-1-1-1-1-1-0-0-0-0-0-0-0-0-0-0-0-0-|
G|-0-0-0-0-0-0-0-0-0-0-0-0-0-0-0-0-0-0-0-0-0-0-0-0-0-0-0-0-0-0-0-0-|
D|-2-2-2-2-2-2-2-2-2-2-2-2-2-2-2-2-0-0-0-0-0-0-0-0-0-0-0-0-0-0-0-0-|
A|-3-3-3-3-3-3-3-3-3-3-3-3-3-3-3-3-2-2-2-2-2-2-2-2-2-2-2-2-2-2-2-2-|
E|---------------------------------3-3-3-3-3-3-3-3-3-3-3-3-3-3-3-3-|

e|-------------------------3-3-3-3-------------------------3-3-3-3-|
B|-1-1-1-1-1-1-1-1-1-1-1-1-1-1-1-1-1-1-1-1-1-1-1-1-1-1-1-1-1-1-1-1-|
G|-0-0-0-0-0-0-0-0-0-0-0-0-0-0-0-0-0-0-0-0-0-0-0-0-0-0-0-0-0-0-0-0-|
D|-2-2-2-2-2-2-2-2-2-2-2-2-2-2-2-2-3-3-3-3-3-3-3-3-3-3-3-3-3-3-3-3-|
A|-0-0-0-0-0-0-0-0-0-0-0-0-0-0-0-0-3-3-3-3-3-3-3-3-3-3-3-3-3-3-3-3-|
E|---------------------------------1-1-1-1-1-1-1-1-1-1-1-1-1-1-1-1-|

e|-------------------------3-3-3-3---------------------------------|
B|-1-1-1-1-1-1-1-1-1-1-1-1-1-1-1-1-1-1-1-1-0-0-0-0-0-0-0-0-0-0-0-0-|
G|-0-0-0-0-0-0-0-0-0-0-0-0-0-0-0-0-0-0-0-0-0-0-0-0-0-0-0-0-0-0-0-0-|
D|-2-2-2-2-2-2-2-2-2-2-2-2-2-2-2-2-0-0-0-0-0-0-0-0-0-0-0-0-0-0-0-0-|
A|-3-3-3-3-3-3-3-3-3-3-3-3-3-3-3-3-2-2-2-2-2-2-2-2-2-2-2-2-2-2-2-2-|
E|---------------------------------3-3-3-3-3-3-3-3-3-3-3-3-3-3-3-3-|



e|-------------------------------------------------1-1-1-1---------|
B|-1-1-1-1-1-1-1-1-1-1-1-1-1-1-1-1-1-1-1-1-1-1-1-1-1-1-1-1-1-1-1-1-|
G|-0-0-0-0-0-0-0-0-0-0-0-0-0-0-0-0-0-0-0-0-0-0-0-0-0-0-0-0-0-0-0-0-|
D|-2-2-2-2-2-2-2-2-2-2-2-2-2-2-2-2-3-3-3-3-3-3-3-3-3-3-3-3-3-3-3-3-|
A|-0-0-0-0-0-0-0-0-0-0-0-0-0-0-0-0-3-3-3-3-3-3-3-3-3-3-3-3-3-3-3-3-|
E|---------------------------------1-1-1-1-1-1-1-1-1-1-1-1-1-1-1-1-|

e|-----------------------------------------------------------------|
B|-1-1-1-1-1-1-1-1-1-1-1-1-3-3-3-3-1-1-1-1-0-0-0-0-0-0-0-0-0-0-0-0-|
G|-0-0-0-0-0-0-0-0-0-0-0-0-0-0-0-0-0-0-0-0-0-0-0-0-0-0-0-0-0-0-0-0-|
D|-2-2-2-2-2-2-2-2-2-2-2-2-2-2-2-2-0-0-0-0-0-0-0-0-0-0-0-0-0-0-0-0-|
A|-3-3-3-3-3-3-3-3-3-3-3-3-3-3-3-3-2-2-2-2-2-2-2-2-2-2-2-2-2-2-2-2-|
E|---------------------------------3-3-3-3-3-3-3-3-3-3-3-3-3-3-3-3-|

e|-------------------------------------------------3-3-3-3-3-3-3-3-|
B|-1-1-1-1-1-1-1-1-1-1-1-1-1-1-1-1-1-1-1-1-1-1-1-1-1-1-1-1-1-1-1-1-|
G|-0-0-0-0-0-0-0-0-0-0-0-0-0-0-0-0-0-0-0-0-0-0-0-0-0-0-0-0-0-0-0-0-|
D|-2-2-2-2-2-2-2-2-2-2-2-2-2-2-2-2-3-3-3-3-3-3-3-3-3-3-3-3-3-3-3-3-|
A|-0-0-0-0-0-0-0-0-0-0-0-0-0-0-0-0-3-3-3-3-3-3-3-3-3-3-3-3-3-3-3-3-|
E|---------------------------------1-1-1-1-1-1-1-1-1-1-1-1-1-1-1-1-|

e|-3-3-3-3-3-------------------------------------------------------|
B|-1-1-1-1-1-1-1-1-1-1-1-1-3-3-3-3-3-3-3-3-3-3-3-3-3-3-3-3-3-3-3-3-|
G|-0-0-0-0-0-0-0-0-0-0-0-0-0-0-0-0-0-0-0-0-0-0-0-0-0-0-0-0-0-0-0-0-|
D|-2-2-2-2-2-2-2-2-2-2-2-2-2-2-2-2-0-0-0-0-0-0-0-0-0-0-0-0-0-0-0-0-|
A|-3-3-3-3-3-3-3-3-3-3-3-3-3-3-3-3-2-2-2-2-2-2-2-2-2-2-2-2-2-2-2-2-|
E|---------------------------------3-3-3-3-3-3-3-3-3-3-3-3-3-3-3-3-|


e|-------------------------------------------------3-3-3-3-3-3-3-3-|
B|-1-1-1-1-1-1-1-1-1-1-1-1-1-1-1-1-1-1-1-1-1-1-1-1-1-1-1-1-1-1-1-1-|
G|-0-0-0-0-0-0-0-0-0-0-0-0-0-0-0-0-0-0-0-0-0-0-0-0-0-0-0-0-0-0-0-0-|
D|-2-2-2-2-2-2-2-2-2-2-2-2-2-2-2-2-3-3-3-3-3-3-3-3-3-3-3-3-3-3-3-3-|
A|-0-0-0-0-0-0-0-0-0-0-0-0-0-0-0-0-3-3-3-3-3-3-3-3-3-3-3-3-3-3-3-3-|
E|---------------------------------1-1-1-1-1-1-1-1-1-1-1-1-1-1-1-1-|


e|-3-3-3-3-3-------------------------------------------------------|
B|-1-1-1-1-1-1-1-1-1-1-1-1-3-3-3-3-3-3-3-3-3-3-3-3-3-3-3-3-3-3-3-3-|
G|-0-0-0-0-0-0-0-0-0-0-0-0-0-0-0-0-0-0-0-0-0-0-0-0-0-0-0-0-0-0-0-0-|
D|-2-2-2-2-2-2-2-2-2-2-2-2-2-2-2-2-0-0-0-0-0-0-0-0-0-0-0-0-0-0-0-0-|
A|-3-3-3-3-3-3-3-3-3-3-3-3-3-3-3-3-2-2-2-2-2-2-2-2-2-2-2-2-2-2-2-2-|
E|---------------------------------3-3-3-3-3-3-3-3-3-3-3-3-3-3-3-3-|


play slow




e|-1-------------1--0--3------3-------3----3--3p1--1-------------1--0--3------3------3----3--3p1-|
B|----------1---------------3-------3-----------------------1---------------3------3-------------|
G|------2-----2-----------0-----------------------------2-----2-----------0----------------------|
D|----3-----------------------------------------------3------------------------------------------|
A|-----------------------------------------------------------------------------------------------|
E|-1------1------1-----3---------3---------3-------1------1------1-----3---------3--------3------|


e|-1-------------1--0--3------3-----3----0-----|
B|----------1---------------3-----3----1---1---|
G|------2-----2-----------0--------------------|
D|----3----------------------------------------|
A|-------------------------------------------3-|
E|-1------1------1-----3--------3--------------|




Hope it sounded right!
Suggest correction
Creating personal tab
Creating personal tab
You can edit any tab online and save it as your Personal.

You can edit, replace or remove any tab part or add personal notes – all changes will be seen only by you.

Personal tabs can be accessed anytime from any device, even offline.
Learn more »
Give kudos to tab author, rate the tab!
1 2 3 4 5
comments
print report bad tab
guest
You may want to rate the tab now too:
select rating
Wanna post a correction for this tab? Suggest correction