Oops, an error
Loading. Please wait.
We have an official Fix You tab made by UG professional guitarists. Check out the tab »
×

Fix You Live tab

version 5
version 5

Whole song

Video

4,650 views 72 this week
5 commentsread comments
1 2 3 4 5
x 7
add to favorites
×
Save as Personal and add changes to this tab that will be seen only by you. Learn more ›
×
You can save this tab as Personal to edit and correct it or add notes. All changes will be seen only by you. Learn more »
launch autoscroll
font size
0
reset
how to read this tab
guitar tuner
backing track
0:00
0:00
edit
Autoscroll
slow
fast
+/-
esc
set tempo
stop
Author
Difficulty
Standard Tuning: Tabbed from low E on top, high e on bottom.

E
A
D
G
B
e
No guitar until Chorus in the Live Version I listened to...


[Chorus]

e|--------------------------------------------------|
B|--------------------------------------------------|
G|-9-11----9-11----9-11----9-11-----9-11------------|
D|-------9-------9-------9-------11-------11--------|
A|--------------------------------------------------|
E|--------------------------------------------------|

Then: After “I will try and fix you.”

e|----------------|
B|----------------|
G|-10-----10------|     Repeat through Verse 2 until the Chorus.
D|-----10-----9---|
A|----------------|
E|----------------|


[Chorus]

Then: When the song begins to pick up…

e|-------------------------------------------------------------|
B|-------------------------------------------------------------|
G|-------------------------------------------------------------|
D|-10-10-10-10-10-10-10-10-10-10-10-10~15-15-15-15-------------|
A|-------------------------------------------------------------|
E|-------------------------------------------------------------|

Repeat the above tab once more, then…

e|-----------------------------------------------------------------------------|
B|-----------------------------------------------------------------------------|
G|-----------------------------------------------------------------------------|
D|10-10-10-10-10-10-10-10-10-10-10-10~15-15-15-15~10-10-10-10~9 (Pluck it 12X)-|
A|-----------------------------------------------------------------------------|
E|-----------------------------------------------------------------------------|

When the song slows down again:

e|----------------|
B|----------------|
G|-10-----10------|     Until the end of the song.
D|-----10-----9---|
A|----------------|
E|----------------|



************************************

| ~  Vibrato

************************************

            
            
Suggest correction
Creating personal tab
Creating personal tab
You can edit any tab online and save it as your Personal.

You can edit, replace or remove any tab part or add personal notes – all changes will be seen only by you.

Personal tabs can be accessed anytime from any device, even offline.
Learn more »
comments
print report bad tab
5 comments total. Showing first comments.
0 reply
mattant 77 Mar 21, 2006 09:03 AM

this is totally wrong, i heard it at live 8 and the chorus goes like this:
e|------------|
B|-----4------|
G|-3h5--------| (x??)
D|------------|
A|------------|
E|------------|

and the verse goes like this:
e|---11----10-|
B|-8-----8----|
G|------------|
D|------------|
A|------------|
E|------------|

and the solo goes like this:
(x3)
e|---------------------------------------------------------------|
B|-4-4-4-4-4-4-4-4/11-11-11-11-11-----4-4-4-4-3-3-3-3-3-3-3-3----|
G|---------------------------------------------------------------(x?)
D|---------------------------------------------------------------|
A|---------------------------------------------------------------|
E|---------------------------------------------------------------|

0 reply
mattant 77 Mar 21, 2006 09:05 AM

soz i meant that (x3)in the gap between the 11 and the 4

0 reply
browndog221 31 Apr 02, 2006 03:37 PM

Inaccurate

guest
You may want to rate the tab now too:
select rating
Wanna post a correction for this tab? Suggest correction