Oops, an error
Loading. Please wait.

Fix You Tab

version 6
version 6

Whole song

9,795 views 1 this week
no commentswrite comment
1 2 3 4 5
please rate
add to favorites
launch autoscroll
font size
0
reset
how to read this tab
guitar tuner
Autoscroll
slow
fast
+/-
esc
set tempo
stop
Help us to improve Ultimate-Guitar.com Take our survey!
×
Contributor
Capo
3rd fret
----------------------------------------------------------------------------
                             FIX YOU - Coldplay
----------------------------------------------------------------------------
Tabbed by: Georgia
Email: georgia_grillz@hotmail.com

Tuning: Standard
Capo 3rd (unless specified)

There are already a few good tabs for this song, but I've changed a few things and 
have made what I'm pretty sure is a perfect tab for the whole song.
Let me know what you think.

Verse 1 and 2 - Bass, No Capo
G|--------------5----------------------------------------------------------|
D|--------5--8------8-------------5----------------------------------------|
A|--6---6-------------------6---6---5--------------------------------------|
E|-------------------------------------8---6-------------------------------|

Verse 1 and 2 - Organ
e|---0---0--0---0---0---3------0---0--0---0---0---3-----------------------|
B|---1---1--0---0---1---0------1---1--0---0---1---0-----------------------|
G|---0---0--0---0---2---0------0---0--0---0---2---0-----------------------|
D|---2---2--2---2---2---0------2---2--2---2---2---0-----------------------|
A|---3---3--2---2---0---2------3---3--3---2---0---2-----------------------|
E|----------0---0---0---3-----------------0---0---3-----------------------|

Chorus 1 - Piano
                                    X3     Play this the third time
e|--1---1--0---3--------3---------3---|-----1---1--0---3-------------------|
B|--1---1--1---0--------0---------0---|-----1---1--1---0-------------------|
G|--2---2--0---0--------0---------0---|-----2---2--0---0-------------------|
D|--3---3--2---0--------0---------0---|-----3---3--2---0-------------------|
A|--3---3--3---2--------2---------2---|-----3---3--3---2-------------------|
E|--1---1------3--------3---------3---|-----1---1------3-------------------|

Post Chorus - Piano                                                       X2
e|---0--x-0----0-0--x-0----0--x-0----0-3--x-3------------------------------|
B|---1--x-1----1-0--x-0----1--x-1----1-0--x-0------------------------------|
G|---0--x-0----0-0--x-0----2--x-2----2-0--x-0------------------------------|
D|---2--x-2----2-2--x-2----2--x-2----2-0--x-0------------------------------|
A|---3--x-3----3-2--x-2----0--x-0----0-2--x-2------------------------------|
E|------x--------0--x-0----0--x-0----0-3--x-3------------------------------|
x=palm mute 
         
Verse 3                                                                 X4
e|---0---0-0--0-0--0---0-0--0-0---0---0-0--0-0---3---3-3--3-3--------------|
B|---1---1-1--1-0--0---0-0--0-0---1---1-1--1-0---0---0-0--0-0--------------|
G|---0---0-0--0-0--0---0-0--0-0---2---2-2--2-2---0---0-0--0-0--------------|
D|---2---2-2--2-2--2---2-2--2-2---2---2-2--2-2---0---0-0--0-0--------------|
A|---3---3-3--3-3--2---2-2--2-2---0---0-0--0-0---2---2-2--2-2--------------|
E|-----------------0---0-0--0-0---0---0-0--0-0---3---3-3--3-3--------------|

Chorus 2                                                                X3
e|---1---1-1-1---1-1-1---1-1-0---0-0-3---3-3-3---3-3-3---3-3-3--3----------|
B|---1---1-1-1---1-1-1---1-1-1---1-1-0---0-0-0---0-0-0---0-0-0--0----------|
G|---2---2-2-2---2-2-2---2-2-0---0-0-0---0-0-0---0-0-0---0-0-0--0----------|
D|---3---3-3-3---3-3-3---3-3-2---2-2-0---0-0-0---0-0-0---0-0-0--0----------|
A|---3---3-3-3---3-3-3---3-3-3---3-3-2---2-2-2---2-2-2---2-2-2--2----------|
E|---1---1-1-1---1-1-1---1-1---------3---3-3-3---3-3-3---3-3-3--3----------|

Solo (tabbed with NO CAPO, because it is easier to read)
Repeat the whole solo four times - Vocals come in on the third time
e|-------------------------------------------------------------------------|
B|-4-4-4-4-4-4-4-4-4-4-4-4-11-11-11-11--4-4-4-4-4-4-4-4-4-4-4-4-11-11-11-11|
G|-3-3-3-3-3-3-3-3-3-3-3-3-12-12-12-12--5-5-5-5-5-5-5-5-5-5-5-5-12-12-12-12|
D|-------------------------------------------------------------------------|
A|-------------------------------------------------------------------------|
E|-------------------------------------------------------------------------|

e|-------------------------------------------------------------------------|
B|-4-4-4-4-4-4-4-4-4-4-4-4-11-11-11-11--4-4-4-3-3-3-3-3-3-3-3-3-3-3-3-3----|
G|-3-3-3-3-3-3-3-3-3-3-3-3-12-12-12-12--3-3-3-3-3-3-3-3-3-3-3-3-3-3-3-3----|
D|-------------------------------------------------------------------------|
A|-------------------------------------------------------------------------|
E|-------------------------------------------------------------------------|

e|-------------------------------------------------------------------------|
B|-4-4-4-4-4-4-4-4-4-4-4-4-11-11-11-11--4-4-4-4-4-4-4-4-4-4-4-4-11-11-11-11|
G|-5-5-5-5-5-5-5-5-5-5-5-5-12-12-12-12--5-5-5-5-5-5-5-5-5-5-5-5-12-12-12-12|
D|-------------------------------------------------------------------------|
A|-------------------------------------------------------------------------|
E|-------------------------------------------------------------------------|

e|-------------------------------------------------------------------------|
B|-4-4-4-4-4-4-4-4-4-4-4-4-11-11-11-11--4-4-4-3-3-3-3-3-3-3-3-3-3-3-3-3----|
G|-3-3-3-3-3-3-3-3-3-3-3-3-12-12-12-12--3-3-3-3-3-3-3-3-3-3-3-3-3-3-3-3----|
D|-------------------------------------------------------------------------|
A|-------------------------------------------------------------------------|
E|-------------------------------------------------------------------------|

Final Chorus - Piano
e|---1----0---3---3-------1----0---3---3--------1----0---3---3--------0----|
B|---1----1---0---0-------1----1---0---0--------1----1---0---0--------1----|
G|---2----0---0---0-------2----0---0---0--------2----0---0---0--------0----|
D|---3----2---0---0-------3----2---0---0--------3----2---0---0--------2----|
A|---3----3---2---2-------3----3---2---2--------3----3---2---2--------3----|
E|---1--------3---3-------1--------3---3--------1--------3---3-------------|

Suggest correction new What's this?
You can suggest a correction to this tab. Community and Mods will review your correction and vote to approve or reject it.
comments
We did not receive enough feedback on this tab! Please rate:
print report bad tab
1 2 3 4 5
guest
You may want to rate the tab now too:
select rating
Please do not post tabs as comments. Select "correction" instead!