Oops, an error
Loading. Please wait.

Fix You Tab

version 9
version 9

Whole song

109 views 9 this week
no commentswrite comment
1 2 3 4 5
3 more votes to show rating
add to favorites
launch autoscroll
font size
0
reset
how to read this tab
guitar tuner
Autoscroll
slow
fast
+/-
esc
set tempo
stop
Help us to improve Ultimate-Guitar.com Take our survey!
×
Author
Difficulty
Capo
intermediate
3rd fret
About this tab version
This is a finger-style guitar tab, it combines the melody and chords/bass of a song to compose every sound in the song. Was this info helpful? Yes No
Fix You by Coldplay - Fingerstyle
```````````````````````````````````````````````````````
This is a fingerstyle guitar tab that I composed for Fix You by Coldplay.
Please give credit to lesmua tewrast if you use this in a Youtube vid.

Please leave a comment or message me if any of it is confusing! I can improve it with your feedback

(if there are notes on every string of a line then strum)

Capo 3 or 5 (3 is recommended)


[Intro]

e|------------------------------------------------------------------------------|
B|------------------------------------------------------------------------------|
G|------------------------------------------------------------------------------|
D|------------------------------------------------------------------------------|
A|---3---------2----------0---------2-------------------------------------------|
E|------------------------------------------------------------------------------|(x2)

[Verse]

  when u  try...          

e|---------0---0----------------------------------------------------------------|
B|---------1------1----------1---1p0-----------1---------0----------------------|
G|--0--0--------------0--0------------2-----------------------------------------|
D|---------------------------2--------------2--------2--------------------------|
A|---------3-----------------2--------0------------2----------------------------|
E|------------------------------------------------------------------------------|

e|---------0---0----------------------------------------------------------------|
B|---------1------1----------0---0h1p0--------------1----------0----------------|
G|--0--0---------------0-----------------2--------------------------------------|
D|---------------------------2------------------2----------2--------------------|
A|---------3-----------------2-----------0---------------2----------------------|
E|------------------------------------------------------------------------------|


e|---------0---0-------------------------------------------------0----3---------|
B|---------1-------1----------0h1p0--------------1-------1---3---1---------1----|
G|--0--0---------------0--------------2--------------0-----------0--------------|
D|-------------------------------------------2----------------------------------|
A|---------3--------------2-----------0--------------------------3------2-------|
E|------------------------------------------------------------------------------|


e|------------------------------------------------------------------------------|
B|----------1-----------------0h1-----1-----------------------------------------|
G|------------------------------------------------------------------------------|
D|-----2----------------2-------------3-----------------------------------------|
A|--0---------------2-----------------3-----------------------------------------|
E|------------------------------------------------------------------------------|


[Chorus]

e|-------1---0------------------------------------------------------------------|
B|----------------3---1p0--------------1----------------------------------------|
G|-------------------------2p0-----2--------------------------------------------|
D|-------------------------------------3----------------------------------------|
A|-----------3-------------------------3----------------------------------------|
E|----------------3-------------3-----------------------------------------------|(x2)

e|--------1----0-------------------0--------------------------------------------|
B|--------1--------3------0-----1-----1----------1----------0---------1-------0-|
G|---2----2--------0----0-------------------------------------------------------|
D|--------3-----------------------------------2----------2---------2-------2----|
A|--------3--------3-----------------------3----------2---------0-------2-------|
E|--------1---------------------------------------------------------------------|


[Verse 2]

e|---------0---0---0------------------------------------------------------------|
B|---------1----------1--------1---1p0-----------1---------0--------------------|
G|----0------------------0--------------2---------------------------------------|
D|-----------------------------2--------------2--------2------------------------|
A|---------3-------------------2--------0------------2--------------------------|
E|------------------------------------------------------------------------------|

e|---------0---0----------------------------------------------------------------|
B|---------1------1----------0---1--0-----------1---------0---------------------|
G|--0--0--------------0----------------2----------------------------------------|
D|---------------------------2--------------2---------2-------------------------|
A|---------3-----------------2---------0------------2---------------------------|
E|------------------------------------------------------------------------------|

e|----------0---0--0---1---0-------------------------------------0----3-1-0-----|
B|----------1------------------3-----3p1--------1--------1h3-1---1-----------3--|
G|--0-0-0---------------------------------------------0----------0--------------|
D|-------------------------------------------2----------------------------------|
A|----------3--------------3-------------------------------------3--------------|
E|------------------------------------------------------------------------------|


e|------------------------------------------------------------------------------|
B|---1------------0h1------1----------------------------------------------------|
G|------------------------------------------------------------------------------|
D|---2--------2------------3----------------------------------------------------|
A|---------2---------------3----------------------------------------------------|
E|------------------------------------------------------------------------------|


[Chorus]

e|-------1---0------------------------------------------------------------------|
B|----------------3---1p0--------------1----------------------------------------|
G|-------------------------2p0-----2--------------------------------------------|
D|-------------------------------------3----------------------------------------|
A|-----------3--------- ---------------3----------------------------------------|
E|----------------3-------------3-----------------------------------------------|(x2)

e|--------1----0-------------------0--------------------------------------------|
B|--------1--------3------0-----1-----1-----------------------------------------|
G|---2----2--------0----0-------------------------------------------------------|
D|--------3---------------------------------------------------------------------|
A|--------3--------3------------------------------------------------------------|
E|--------1---------------------------------------------------------------------|


[Bridge]

e|-------------------------------------3-----3-----3----------------------------|
B|-------1-----1-----1-----1-----1----------------------------------------------|
G|------------------------------------------------------------------------------|
D|------------------------------------------------------------------------------|
A|----3-----3-----3-----3-----3-----3-----3-----3-------------------------------|
E|------------------------------------------------------------------------------|


e|-------------------------------------3-----3-----3----------------------------|
B|-------1-----1-----1-----1-----1----------------------------------------------|
G|------------------------------------------------------------------------------|
D|----3-----3-----3-----3-----3----3-----3------3-------------------------------|
A|------------------------------------------------------------------------------|
E|------------------------------------------------------------------------------|


e|-------------------------------------3-----3-----3----------------------------|
B|-------1-----1-----1-----1-----1----------------------------------------------|
G|------------------------------------------------------------------------------|
D|------------------------------------------------------------------------------|
A|----3-----3-----3-----3-----3-----3-----3-----3-------------------------------|
E|------------------------------------------------------------------------------|


e|------------------------------------------------------------------------------|
B|-----1-----1-----0-----0-----0-----0-----0-----0------------------------------|
G|------------------------------------------------------------------------------|
D|------------------------------------------------------------------------------|
A|------------------------------------------------------------------------------|
E|---0----0-----3-----3-----3-----3-----3-----3---------------------------------|

e|-------------------------------------3-----3-----3----------------------------|
B|-------1-----1-----1-----1-----1----------------------------------------------|
G|------------------------------------------------------------------------------|
D|----2-----2-----2-----2-----2-----2-----2-----2-------------------------------|
A|------------------------------------------------------------------------------|
E|------------------------------------------------------------------------------|

e|-------------------------------------3-----3-----3----------------------------|
B|-------1-----1-----1-----1-----1----------------------------------------------|
G|------------------------------------------------------------------------------|
D|----3-----3-----3-----3-----3----3-----3------3-------------------------------|
A|------------------------------------------------------------------------------|
E|------------------------------------------------------------------------------|

e|-------------------------------------3-----3-----3----------------------------|
B|-------1-----1-----1-----1-----1----------------------------------------------|
G|------------------------------------------------------------------------------|
D|------------------------------------------------------------------------------|
A|----3-----3-----3-----3-----3-----3-----3-----3-------------------------------|
E|------------------------------------------------------------------------------|

e|------------------------------------------------------------------------------|
B|-----1-----1-----0-----0-----0-----0-----0-----0------------------------------|
G|------------------------------------------------------------------------------|
D|------------------------------------------------------------------------------|
A|------------------------------------------------------------------------------|
E|---0----0-----0-----3-----3-----3-----3-----3---------------------------------|

    C
e|--0-----0-----0-----0-----0-----0-----0-----3-----3-----3---------------------|
B|--1-----1-----1-----1-----1-----1-----1-----1-----1-----1---------------------|
G|--0-----0-----0-----0-----0-----0-----0-----0-----0-----0---------------------|
D|--2-----2-----2-----2-----2-----2-----2-----2-----2-----2---------------------|
A|--3-----3-----3-----3-----3-----3-----3-----3-----3-----3---------------------|
E|--0-----0-----0-----0-----0-----0-----0-----0-----0-----0---------------------|

    F
e|--1-----1-----1-----1-----1-----1-----1-----3-----3-----3---------------------|
B|--1-----1-----1-----1-----1-----1-----1-----1-----1-----1---------------------|
G|--2-----2-----2-----2-----2-----2-----2-----2-----2-----2---------------------|
D|--3-----3-----3-----3-----3-----3-----3-----3-----3-----3---------------------|
A|--3-----3-----3-----3-----3-----3-----3-----3-----3-----3---------------------|
E|--1-----1-----1-----1-----1-----1-----1-----1-----1-----1---------------------|

    C
e|--0-----0-----0-----0-----0-----0-----0-----3-----3-----3---------------------|
B|--1-----1-----1-----1-----1-----1-----1-----1-----1-----1---------------------|
G|--0-----0-----0-----0-----0-----0-----0-----0-----0-----0---------------------|
D|--2-----2-----2-----2-----2-----2-----2-----2-----2-----2---------------------|
A|--3-----3-----3-----3-----3-----3-----3-----3-----3-----3---------------------|
E|--0-----0-----0-----0-----0-----0-----0-----0-----0-----0---------------------|

   Gsus4              G
e|--3-----3-----3-----3-----3-----3-----3-----3-----3-----3---------------------|
B|--1-----1-----1-----0-----0-----0-----0-----0-----0-----0---------------------|
G|--0-----0-----0-----0-----0-----0-----0-----0-----0-----0---------------------|
D|--0-----0-----0-----0-----0-----0-----0-----0-----0-----0---------------------|
A|--0-----0-----0-----2-----2-----2-----2-----2-----2-----2---------------------|
E|--0-----0-----0-----3-----3-----3-----3-----3-----3-----3---------------------|

    Am7
e|--0-----0-----0-----0-----0-----0-----0-----3-----3-----3---------------------|
B|--1-----1-----1-----1-----1-----1-----1-----1-----1-----1---------------------|
G|--0-----0-----0-----0-----0-----0-----0-----0-----0-----0---------------------|
D|--2-----2-----2-----2-----2-----2-----2-----2-----2-----2---------------------|
A|--0-----0-----0-----0-----0-----0-----0-----0-----0-----0---------------------|
E|--0-----0-----0-----0-----0-----0-----0-----0-----0-----0---------------------|

    F
e|--1-----1-----1-----1-----1-----1-----1-----3-----3-----3---------------------|
B|--1-----1-----1-----1-----1-----1-----1-----1-----1-----1---------------------|
G|--2-----2-----2-----2-----2-----2-----2-----2-----2-----2---------------------|
D|--3-----3-----3-----3-----3-----3-----3-----3-----3-----3---------------------|
A|--3-----3-----3-----3-----3-----3-----3-----3-----3-----3---------------------|
E|--1-----1-----1-----1-----1-----1-----1-----1-----1-----1---------------------|

    C
e|--0-----0-----0-----0-----0-----0-----0-----3-----3-----3---------------------|
B|--1-----1-----1-----1-----1-----1-----1-----1-----1-----1---------------------|
G|--0-----0-----0-----0-----0-----0-----0-----0-----0-----0---------------------|
D|--2-----2-----2-----2-----2-----2-----2-----2-----2-----2---------------------|
A|--3-----3-----3-----3-----3-----3-----3-----3-----3-----3---------------------|
E|--0-----0-----0-----0-----0-----0-----0-----0-----0-----0---------------------|

   Gsus4              G
e|--3-----3-----3-----3-----3-----3-----3-----3-----3-----3---------------------|
B|--1-----1-----1-----0-----0-----0-----0-----0-----0-----0---------------------|
G|--0-----0-----0-----0-----0-----0-----0-----0-----0-----0---------------------|
D|--0-----0-----0-----0-----0-----0-----0-----0-----0-----0---------------------|
A|--0-----0-----0-----2-----2-----2-----2-----2-----2-----2---------------------|
E|--0-----0-----0-----3-----3-----3-----3-----3-----3-----3---------------------|


[Bridge 2]

         tears...           down...             when...
   C                    F                     C         C
e|--0------0--0---------1---------1--1--------0--0--0---0---0--1----------------|
B|--1------1--1---------1-----1---1--1--------1---------1---------3---1--3--3--3|
G|--0------0--0---------2---------2--2--------0---------0---------0---------0---|
D|--2-------------------3---------------------2---------2-----------------------|
A|--3-------------3-----3-----------------3---3---------3-----------------------|
E|--0-------------------1---------------------0---------0---------3---------3---|(x2)
 
         tears....          down...      and   i     e i   e    i    ah
    Am7                  F
e|--0------0---0---------1-------1--1-----3----3-----1p0-------------0----------|
B|--1------1---1---------1----1--1--1----------1-----------1--------------------|
G|--0------2---2---------2-------2--2----------0----------------0---------------|
D|--2--------------------3---------------------2--------------------------------|
A|--0-------------3------3---------------------3--------------------------------|
E|--0--------------------1---------------------0--------------------------------|

    G                          F
e|--x--------x--------x--------x-------------------------------------------------|
B|--3--------0--------0--------1-------------------------------------------------|
G|--0--------0--------0--------2-------------------------------------------------|
D|--0--------0--------0--------3-------------------------------------------------|
A|--2--------2--------2--------3-------------------------------------------------|
E|--3--------3--------3--------x-------------------------------------------------|


[Outro]

e|------------------------------------------------------------------------------|
B|------------------------------------------------------------------------------|
G|------------------------------------------------------------------------------|
D|----3---2--0------------------------------------------------------------------|
A|---------------3p2----0-------0---3-------------------------------------------|
E|------------------------3-----------------------------------------------------|(x2)

e|------------------------------------------------------------------------------|
B|------------------------------------------------------------------------------|
G|------------------------------------------------------------------------------|
D|----------------0h2----0------------------------------------------------------|
A|------0----3------------------3--2--3-----------------------------------------|
E|------------------------------------------------------------------------------|


************************************

| h   Hammer-on
| p   Pull-off
| x   Mute

************************************
Suggest correction
Give kudos to tab author, rate the tab!
1 2 3 4 5
comments
print report bad tab
guest
You may want to rate the tab now too:
select rating
Wanna post a correction for this tab? Suggest correction