Oops, an error
Loading. Please wait.

Fun bass

1,369 views 6 this week
3 commentsread comments
1 2 3 4 5
x 6
add to favorites
×
Save as Personal and add changes to this tab that will be seen only by you. Learn more ›
×
You can save this tab as Personal to edit and correct it or add notes. All changes will be seen only by you. Learn more »
launch autoscroll
font size
0
reset
guitar tuner
edit
Autoscroll
slow
fast
+/-
esc
set tempo
stop
Author
-------------------------------------------------------------------------------
                             Fun - Coldplay (feat. Tove Lo)
-------------------------------------------------------------------------------
Tabbed by: Andrew P
Tuning: Standard

Feedback is appreciated

~~~ refers to a part without any bass

Chorus 1(1.12):
G|----------------|----------------|----------------|----------------|
D|----------3-----|----------------|2-2-------2-----|----------------|
A|------------3---|----------------|------------3---|----------------|
E|1-1-----------3-|----------------|--------------1-|----------------|

G|----------------|----------------|----------------|----------------|
D|3-3-------3-----|----------------|2-2---------2-3-|--------3-2-0---|
A|------------3---|----------------|----------3-----|--------------3-|
E|--------------3-|----------------|----------------|----------------|

G|----------------|----------------|----------------|----------------|
D|----------3-----|----------------|2-2-------2-----|----------------|
A|------------3---|----------------|------------3---|----------------|
E|1-1-----------3-|----------------|--------------1-|----------------|

G|----------------|----------------|----------------|----------------|
D|----------3-----|----------------|2-2---------2-3-|----------------|
A|------------3---|----------------|----------3-----|----------------|
E|1-1-----------3-|----------------|----------------|----------------|

G|----------------|----------------|----------------|----------------|
D|----------------|----------------|----------------|----------------|
A|----------------|----------------|----------------|----------------|
E|1-1-----------3-|----------------|0-0-----------1-|----------------|

G|----------------|----------------|----------------|----------------|
D|----------------|----------------|2-2-------------|----------------|
A|----------------|----------------|----------------|----------------|
E|1-1-----------3-|----------------|--------------1-|----------------|

~~~

Pre-Chorus(2.23):
G|----------------|----------------|----------------|----------------|
D|----------------|----------------|----------------|----------------|
A|----------------|----------------|----------------|----------------|
E|1-1---------1-3-|----------------|0-0---------0-1-|----------------|

G|----------------|----------------|----------------|----------------|
D|----------------|----------------|----------------|----------------|
A|----------------|----------------|----------------|----------------|
E|1-1---------1-3-|----------------|0---------------|----------------|

Chorus 2(2.38):
G|----------------|----------------|----------------|----------------|
D|----------3-----|----------------|2-2-------2-----|----------------|
A|------------3---|----------------|------------3---|----------------|
E|1-1-----------3-|----------------|--------------1-|----------------|

G|----------------|----------------|----------------|----------------|
D|3-3-------3-----|----------------|2-2---------2-3-|--------3-2-0---|
A|------------3---|----------------|----------3-----|--------------3-|
E|--------------3-|----------------|----------------|----------------|

G|----------------|----------------|----------------|----------------|
D|3-3-------3-----|----------------|2-2-------2-----|----------------|
A|------------3---|----------------|------------3---|----------------|
E|--------------3-|----------------|--------------1-|----------------|

G|----------------|----------------|----------------|----------------|
D|----------3-----|----------------|2-2---------2-3-|----------------|
A|------------3---|----------------|----------3-----|----------------|
E|1-1-----------3-|----------------|----------------|----------------|

Bridge(3.06):
G|----------------|----------------|----------------|----------------|
D|3-3-------5-7-5-|------------5-3-|2-2-------2-----|----------------|
A|----------------|----------5-----|------------3---|----------------|
E|----------------|----------------|--------------1-|----------------|

G|----------------|----------------|----------------|----------------|
D|3-3-------5-7-5-|------------5-3-|2-2---------2-3-|--------3-2-0---|
A|----------------|----------5-----|----------3-----|--------------3-|
E|----------------|----------------|----------------|----------------|

~~~

Chorus 3(3.35):
G|----------------|----------------|----------------|----------------|
D|----------3-----|----------------|2-2-------2-----|----------------|
A|------------3---|----------------|------------3---|----------------|
E|1-1-----------3-|----------------|--------------1-|----------------|

G|----------------|----------------|----------------|----------------|
D|3-3-------3-----|----------------|2-2---------2-3-|--------3-2-0---|
A|------------3---|----------------|----------3-----|--------------3-|
E|--------------3-|----------------|----------------|----------------|

G|----------------|----------------|----------------|----------------|
D|3-3-------5-7-5-|------------5-3-|2-2-------2-----|----------------|
A|----------------|----------5-----|------------3---|----------------|
E|----------------|----------------|--------------1-|----------------|

G|----------------|----------------|----------------|----------------|
D|----------3-----|----------------|2-2---------2-3-|----------------|
A|------------3---|----------------|----------3-----|----------------|
E|1-1-----------3-|----------------|----------------|----------------|

| /  slide up
| \  slide down
| h  hammer-on
| p  pull-off
| ~  vibrato
| +  harmonic
| x  Mute note
===============================================================================

            
            
Suggest correction
Creating personal tab
Creating personal tab
You can edit any tab online and save it as your Personal.

You can edit, replace or remove any tab part or add personal notes – all changes will be seen only by you.

Personal tabs can be accessed anytime from any device, even offline.
Learn more »
comments
print report bad tab
3 comments total.
0 reply
tomassante 57 Dec 10, 2015 06:48 AM

This is really really good!

-2 reply
tadgardea 10 Mar 30, 2016 06:41 PM

IT SUCKS BIG DICK. What the hell did I just experience?!

0 reply
ceraniusmajora 10 Apr 05, 2017 06:27 AM

It's perfect !

guest
You may want to rate the tab now too:
select rating
Wanna post a correction for this tab? Suggest correction